Oops, an error
Loading. Please wait.

Get On The Floor Bass

version 4
version 4

Whole song

Interactive

1,110 views 1 this week
no commentswrite comment
1 2 3 4 5
3 more votes to show rating
add to favorites
launch autoscroll
font size
0
reset
guitar tuner
Autoscroll
slow
fast
+/-
esc
set tempo
stop
Author
Difficulty
intermediate
Get On The Floor by Michael Jackson

Louis Jackson does the bass on this track, and it's fucking incredible. This is my first 
tab, so I apologize for any confusing portions of this mess. Just listen to the song 
for the rythym, and the tab should speak for itself.


Intro/Chorus

G----3s1-------x--------------------|
D----5s3---------3-3h5----------x---|
A--------3h5-x---------3-3-2-1------|
E----3s1-----------------------x--1-|

G----3s1-------x-------------------3|
D----5s3---------3-3h5---------3h5--|
A--------3h5-x---------3-3-2-1------|
E----3s1----------------------------|

Verse

G----3---------------------3---3-----5---5|
D------5----------------------------------|
A--------5---------------1---1---1s3---3--|
E----------3-x-x-1-3-3p1------------------|


If you have trouble doing the slides on the intro, just slide 3 to 1 on E, it still 
sounds pretty sweet.
Suggest correction
Give kudos to tab author, rate the tab!
1 2 3 4 5
comments
print report bad tab
guest
You may want to rate the tab now too:
select rating
Wanna post a correction for this tab? Suggest correction