Oops, an error
Loading. Please wait.

Give In To Me Bass Tab

version 1
version 1

Whole song

9,089 views 21 this week
no commentswrite comment
1 2 3 4 5
1 last vote to show rating
add to favorites
launch autoscroll
font size
0
reset
guitar tuner
Autoscroll
slow
fast
+/-
esc
set tempo
stop
Help us to improve Ultimate-Guitar.com Take our survey!
×
Difficulty
novice
Tabbed by: RageNate
e-mail (for comments or corrections): hollow.nate@gmail.com

Intro
G-------------------------|----------------------------|
D-------------------------|----------------------------|
A-------------------------|----------------------------|
E-------------------------|----------------------------|x2
B-5---------------------0-|-1-------3------------------|

Verse
G-------------------------|----------------------------|
D-------------------------|----------------------------|
A-------------------------|----------------------------|
E-------------------------|----------------------------|x3
B-5---------------------0-|-1-------3------------------|

G-------------------------|----------------------------|
D-------------------------|----------------------------|
A-------------------------|----------------------------|
E-7--7-7------5--5-5-5---5-|7--7-7-7-------------------|
B-------------------------|------------0-3-3-3-3-3\----|

Chorus
G-------------------------|----------------------------|
D-------------------------|----------------------------|
A-------------------------|----------------------------|
E-------------------------|----------------------------|x3
B-5----------5--------(0)-|-1-------3------------------|

G-------------------------|----------------------------|
D-------------------------|----------------------------|
A-------------------------|----------------------------|
E-------------------------|----------------------------|
B-5----------5------------|-1-------0------------------|

Verse
G-------------------------|----------------------------|
D-------------------------|----------------------------|
A-------------------------|----------------------------|
E-------------------------|----------------------------|x3
B-5---------------------0-|-1-------3------------------|

G-------------------------|----------------------------|
D-------------------------|----------------------------|
A-------------------------|----------------------------|
E-7--7-7--7---5--5-5-5---5-|7--7-7-7-------------------|
B-------------------------|------------0-3-3-3-3-3\----|

Chorus
G-------------------------|----------------------------|
D-------------------------|----------------------------|
A-------------------------|----------------------------|
E-------------------------|----------------------------|x3
B-5----------5--------(0)-|-1-------3------------------|

G-------------------------|----------------------------|
D-------------------------|----------------------------|
A-------------------------|----------------------------|
E-------------------------|----------------------------|
B-5----------5------------|-1-------0------------------|

Bridge
G-------------------------|----------------------------|
D-------------------------|----------------------------|
A-------------------------|----------------------------|
E--5----------5---------5-|--3-----------3-------------|
B-------------------------|----------------------------|

G-------------------------|----------------------------|
D-------------------------|----------------------------|
A-------------------------|----------------------------|
E--1----------0-0-0-------|----1-----------0-0-0-------|
B-------------------------|----------------------------|

G-------------------------|----------------------------|
D-------------------------|----------------------------|
A-------------------------|----------------------------|
E--5----------5---------5-|--3-----------3-------------|
B-------------------------|----------------------------|

G-------------------------|----------------------------|
D-------------------------|----------------------------|
A-------------------------|----------------------------|
E--1----------1-----------|----7------7-7\-------------|
B-------------------------|------------------0------0--|

Guitar Solo I
G-------------------------|----------------------------|
D-------------------------|----------------------------|
A-------------------------|----------------------------|
E-------------------------|----------------------------|x3
B-5---------------------0-|-1-------3------------------|

G-------------------------|----------------------------|
D-------------------------|----------------------------|
A-------------------------|----------------------------|
E-7--7-7-7----5--5-5-5---5-|7--7-7-7-------------------|
B-------------------------|------------0-3-3-3-3-3\----|

Chorus / Guitar Solo II
G-------------------------|----------------------------|
D-------------------------|----------------------------|
A-------------------------|----------------------------|
E-------------------------|----------------------------|x3
B-5----------5--------(0)-|-1-------3--(3)-------------|  \
							   \	
G-------------------------|----------------------------|     x4
D-------------------------|----------------------------|   /
A-------------------------|----------------------------|  /
E-------------------------|----------------------------| /
B-5----------5------------|----------------------------|

Outro
G-------------------------|----------------------------|
D-------------------------|----------------------------|
A-------------------------|----------------------------|
E-------------------------|----------------------------| Repeat till Fade
B-5----------5-5-5----(0)-|-1-------3-3-3--------------|
Suggest correction
Give kudos to tab author, rate the tab!
1 2 3 4 5
comments
print report bad tab
guest
You may want to rate the tab now too:
select rating
Wanna post a correction for this tab? Suggest correction