Oops, an error
Loading. Please wait.

Give In To Me Tab

version 1
version 1

Solo

Whole song

6,341 views 12 this week
no commentswrite comment
1 2 3 4 5
please rate
add to favorites
launch autoscroll
font size
0
reset
how to read this tab
guitar tuner
Autoscroll
slow
fast
+/-
esc
set tempo
stop
Help us to improve Ultimate-Guitar.com Take our survey!
×
Difficulty
intermediate
slash and michael jackson
                                      
          H             H         E  E  E   E   
-------------------|-------------------------|
-------------------|----------------------7--|
--------7br--------|--9~--------L-----9~-----|
-------------------|---------------9---------|
-------------------|-------------------------|
-------------------|-------------------------|


  E    T T T E    E  E  T T T T T  Q        
-------------------------------------------|
--7br--L-L---7br--7--L--L-L-L-L-L-10br~----|
-----------9-------------------------------|
-------------------------------------------|
-------------------------------------------|
-------------------------------------------|


   T  T E   E  E  S S  S  S    S S  S  S    S  
--------------------7-10---------7-10---------|
--10p-8------------------10b~--L------10br~-L-|
--------9~--L--L--L---------------------------|
----------------------------------------------|
----------------------------------------------|
----------------------------------------------|


  S S S  S   S   S  S   S  S   T T  S S E   E     
----------------10-----10------------------------|
--L-8---10s-12~----12~--L-12s-10-8-10---8--15b~--|
------9-------------------------------9----------|
-------------------------------------------------|
-------------------------------------------------|
-------------------------------------------------|


  S  S  S S  E  E  E   E     E    E   
-------------------------------------|
--L-15b-L-L--L--L--L--17b~--17b~--L--|
-------------------------------------|
-------------------------------------|
-------------------------------------|
-------------------------------------|


   E     E    E    E   E    E     E   S  S       Q       Q    Q    Q     
--------15~-----------14~--12b~---L---L-17b~-|--17pb~----L----L----L----|
--18b~-------18b~--L-------------15----------|--------------------------|
-------------------------------------16------|--------------------------|
---------------------------------------------|--------------------------|
---------------------------------------------|--------------------------|
---------------------------------------------|--------------------------|


  Q    Q    Q    Q       W                   H.            E   E   
--L----L----L----L----|--L----------------|-----------------------|
----------------------|-------------------|-----------------------|
----------------------|-------------------|-----------------------|
----------------------|-------------------|-----------------------|
----------------------|-------------------|-----------------------|
----------------------|-------------------|---------------12\--1--|


Rami Rikka
Michael Jackson Impersonator-And Also Called the lebanease Mj's Crew Slasher!
Suggest correction
Give kudos to tab author, rate the tab!
1 2 3 4 5
comments
print report bad tab
guest
You may want to rate the tab now too:
select rating
Please do not post tabs as comments. Select "correction" instead!