Oops, an error
Loading. Please wait.

Heal The World Bass Tab

version 1
version 1

Whole song

Interactive

13,156 views 24 this week
1 commentread comment
1 2 3 4 5
excellent!
x 4
add to favorites
launch autoscroll
font size
0
reset
guitar tuner
Tab Pro tools
  • play this tab
  • loop segment
  • change instrument
  • show fretboard
  • metronome
×
Best way to learn
"Heal The World"
Autoscroll
slow
fast
+/-
esc
set tempo
stop
Contributor
Difficulty
novice
Intro:

G |----------------|----------------|----------------|----------------|
D |----------------|----------797---|----------------|7---------------|
A |----------------|---------7------|0---------------|------797-------|
E |----------------|----------------|----------------|----------------|


 1# Verse:

G |----------------|----------------|----------------|----------------|
D |----------------|--------2-------|----------------|--------2-------|
A |0-------2-------|4---------------|0-------2-------|4---------------|
E |----------------|----------------|----------------|----------------|

G |----------------|----------------|----------------|----------------|
D |----------------|--------2-------|----------------|--------2---4---|
A |0-------2-------|4---------------|0-------2-------|4---------------|
E |----------------|----------------|----------------|----------------|


 Pre-chorus:

G |----------------|----------------|----------------|------9---------|
D |----------------|----------------|----------------|-------9--------|
A |2-------4-------|5-------4-------|2-------2-------|7-------7-------|
E |----------------|----------------|----------------|----------------|


 1# Chorus:

G |----------------|------------4---|----------------|----------------|
D |----------------|-------------2--|----------------|----------------|
A |0-------0-------|02-2----------2-|7---------------|0-------0-------|
E |----------------|----------------|--------0-------|------------4---|

G |----------------|----------------|----------------|----------------|----------------|
D |----------------|----------------|----------------|----------------|7---------------|
A |--------7-------|5-------4-------|2-------7-------|0-------0-------|------797-------|
E |2---------------|----------------|----------------|----------------|----------------|


 2# Verse:

G |----------------|----------------|----------------|----------------|    /
D |----------------|--------2-------|----------------|--------2-------|   /
A |0-------2-------|4---------------|0-------2-------|4---------------|  /  x 2
E |----------------|----------------|----------------|----------------| /


 Pre-chorus:

G |----------------|----------------|----------------|------9---------|
D |----------------|----------------|----------------|-------9--------|
A |2-------4-------|5-------4-------|2-------2-------|7-------7-------|
E |----------------|----------------|----------------|----------------|


 2# Chorus:

G |----------------|------------4---|----------------|----------------|
D |----------------|-------------2--|----------------|----------------|
A |0-------0-------|02-2----------2-|7---------------|0-------0-------|
E |----------------|----------------|--------0-------|------------4---|

G |----------------|----------------|----------------|----------------|
D |----------------|----------------|----------------|----------------|
A |--------7-------|5-------4-------|2-------7-------|0-------0-------|
E |2---------------|----------------|----------------|----------------|


 Bridge:

G |----------------|----------------|----------------|----------------|
D |----------------|----------------|----------------|----------------|
A |----------------|----------------|----------------|----------------|
E |3-------3-------|5-------5-------|3-------3-------|5-------5-------|

G |----------------|----------------|--------4-------|----------------|
D |----------------|----------------|----------------|2--2--2---------|
A |--------4-------|5-------4-------|2-----------2---|----------------|
E |2---------------|----------------|----------------|----------------|


 3# Verse:

G |----------------|----------------|----------------|----------------|    /
D |----------------|--------2-------|----------------|--------2-------|   /
A |0-------2-------|4---------------|0-------2-------|4---------------|  /  x 2
E |----------------|----------------|----------------|----------------| /


 Pre-chorus:

G |----------------|----------------|----------------|------9---------|
D |----------------|----------------|----------------|-------9--------|
A |2-------4-------|5-------4-------|2-------2-------|7-------7-------|
E |----------------|----------------|----------------|----------------|


 3# Chorus:

G |----------------|------------4---|----------------|----------------|
D |----------------|-------------2--|----------------|----------------|
A |0-------0-------|02-2----------2-|7---------------|0-------0-------|
E |----------------|----------------|--------0-------|------------4---|

G |----------------|----------------|----------------|----------------|
D |----------------|----------------|----------------|----------------|
A |--------7-------|5-------4-------|2-------7-------|0---------------|
E |2---------------|----------------|----------------|----------------|

G |----------------|----------------|----------------|----------------|
D |----------------|----------------|4---------------|----------------|
A |2-------2-------|24-4------------|----------------|2-------2---1---|
E |----------------|----------------|--------2-------|----------------|

G |----------------|----------------|----------------|----------------|
D |----------------|----------------|--------4-------|----------------|
A |--------9-------|7-------6-------|4---------------|2---------------|
E |4---------------|----------------|----------------|----------------|

G |----------------|----------------|----------------|----------------|
D |----------------|----------------|6---------------|----------------|
A |4-------4-------|46-6------------|----------------|4-------4---3---|
E |----------------|----------------|--------4-------|----------------|

G |----------------|----------------|----------------|----------------|
D |--------3-------|4-------3-------|1-------6-------|----------------|
A |1---------------|----------------|----------------|4-------4---3---|
E |----------------|----------------|----------------|----------------|

G |----------------|----------------|----------------|----------------|
D |----------------|--------3-------|----------------|----------------|
A |1---------------|----------------|6---------------|4-------4---3---|
E |--------1-------|2---------------|--------4-------|----------------|

G |----------------|----------------|----------------|----------------|
D |----------------|--------3-------|----------------|----------------|
A |1---------------|----------------|6---------------|4---------------|
E |--------1-------|2---------------|--------4-------|----------------|


 Ending:

G |----------------|    /
D |----------------|   /
A |4---------------|  /  x 10
E |--------4-------| /

G |----------------|
D |----------------|
A |4---------------|
E |----------------|
comments
print report bad tab
1 comment total.
0 reply
Zapist219 wrote on August 17 2009, 04:17 am

nice *****

I want to post or [tab]
guest
You may want to rate the tab now too:
select rating
Please do not post tabs as comments. Select "correction" instead!