Oops, an error
Loading. Please wait.

Human Nature Bass Tab

version 1
version 1

Whole song

Interactive

22,855 views 60 this week
no commentswrite comment
1 2 3 4 5
accurate
x 4
add to favorites
launch autoscroll
font size
0
reset
guitar tuner
Tab Pro tools
  • play this tab
  • loop segment
  • change instrument
  • show fretboard
  • metronome
×
Best way to learn
"Human Nature"
Autoscroll
slow
fast
+/-
esc
set tempo
stop
Contributor
HUMAN NATURE

This is my first tab. the time spacing may be a bit off unless one is very familiar withthe song.
Arrangement I think is standard
please comment  meatngreenz@o2.co.uk

INTRO  X2
G   ------------------|
D   ------------------|
A   ------------------|
E   ---3----5---1---0-|

VERSE           X2
G  --------------------------             ------------------|
D  --------------------------             ------------------|
A  --------------------------             ----------------2-|
E  ---3----5--2---3---5--0--2    3X       ---3----2---0-----|


1ST CHORUS
G  -----------------------------------------|------------------------------------|
D  -----------------------------------------|------------------------------------|
A   --------5--4--2---0------------------2--|--------5--4--2--0----------------0-|
E   3---5------------------3---2---0-0------|3---5----------------3---2---0-0----|

VERSE          X2

2ND CHORUS
G  ---------------------------------------|---------------------------------------------------------|
D  ---------------------------------------|---------------------------------------------------------|
A  --------5--4--2---0-----------------2--|-------5--4--2---0--------------- 2------2------2-----0--|
E  3---5-----------------3---2----0-0-----|3---5----------------3---2---0-0-----0-0----0-0----0-----|

INTRO X2

VERSE       X2

1ST CHORUS   X5

2ND CHORUS   X1

INTRO  repeat to fade
comments
print report bad tab
I want to post or [tab]
guest
You may want to rate the tab now too:
select rating
Please do not post tabs as comments. Select "correction" instead!