Oops, an error
Loading. Please wait.

Human Nature Tab

version 1
version 1

Whole song

Interactive

Video

195,112 views 123 this week
13 commentsread comments
1 2 3 4 5
excellent!
x 28
add to favorites
launch autoscroll
font size
0
reset
how to read this tab
guitar tuner
Tab Pro tools
  • play this tab
  • loop segment
  • change instrument
  • show fretboard
  • metronome
×
Best way to learn
"Human Nature"
Autoscroll
slow
fast
+/-
esc
set tempo
stop
Difficulty
intermediate
Michael Jackson : Human Nature
Album : Thriller

This one is for a classical acoustic guitar
p=pull off
h= hammer on
s= slide to note

Hope you enjoy this one. My tribute to Michael Jackson one of the best musicians ever.
R.I.P MJJ

Intro X2

e-----------------------------------------------------------------------|
B--3p2-3---3--------------2-3p2-------1p0-1---1----------1p0------------|
G--------4-------2-----2--------2-----------2----0----0------0----------|
D-------------------2-------------2-----------------2----------2--------|
A----------------0------------------------------------------------------|
E--3----------------------------------1----------0----------------------|

Verse

e-----------------------------------------------------------------------|
B-------3---2-----2---------------------3-3p2-----------2h3-2----2------|
G----4------2---2----4-2--4---4-2-------------4p2---4-4-----2--2---4-2--|
D----5------2-2-----------5-5-----4-2---------------5-------2-2---------|
A-----------0-----------------------------------------------0-----------|
E----3--------------------3-------------------------3-------------------|

until the line you could repeat it 2 times.
e--------------------------|-----------------------2-----------------------|
B---------------3-3p2------|--------3-5---------5----2----2s3----3-----3---|
G---4---4-2-----------4p2--|--4---4----------2------------0-0----0---0-----|
D---5-5-----4-2------------|--5-5----------2--------------3s4--4---4-----4-|
A--------------------------|-----------------------------------------------|
E---3----------------------|--3----------2----------------0-0--------------|

Chorus

e------------3-----------------2p0-----------------------------------------|
B------------3---2------2------3---3--2---3-2------------------------------|
G--2h4-2--4--4---2----2---2----2----------4---4--2-------------------------|
D---------5------2--2-------2--0---4------4------2-------------------------|
A----------------0------------------------2------0-------------------------|
E---------3----------------------------------------------------------------|

e------3-----------------------------------------------------------------|
B------3--2-----2-----33-3h5-3-------3------3----------------------------|
G---4-----2---2---2------------------0----0------------------------------|
D---5-----2-2-------2-------------4-----4--------------------------------|
A---------0--------------------------------------------------------------|
E---3---------------------------0----------------------------------------|

e------------3-----------------2p0-----------------------------------------|
B------------3---2------2------3---3--2---3-2------------------------------|
G--2h4-2--4--4---2----2---2----2----------4---4--2-------------------------|
D---------5------2--2-------2--0---4------4------2-------------------------|
A----------------0------------------------2------0-------------------------|
E---------3----------------------------------------------------------------|

e------3------------------------------------------------------------------|
B------3--2-----2-----33-3h5-3-------3------------------------------------|
G---4-----2---2---2------------------0------------------------------------|
D---5-----2-2-------2-------------4---------------------------------------|
A---------0---------------------------------------------------------------|
E---3---------------------------0-----------------------------------------|

Verse2

e-----------------------------------------------------------------------|
B-------3---2-----2---------------------3-3p2-----------2h3-2----2------|
G----4------2---2----4-2--4---4-2-------------4p2---4-4-----2--2---4-2--|
D----5------2-2-----------5-5-----4-2---------------5-------2-2---------|
A-----------0-----------------------------------------------0-----------|
E----3--------------------3-------------------------3-------------------|

e--------------------------|-----------------------2-----------------------|
B---------------3-3p2------|--------3-5---------5----2----2s3----3-----3---|
G---4---4-2-----------4p2--|--4---4----------2------------0-0----0---0-----|
D---5-5-----4-2------------|--5-5----------2--------------3s4--4---4-----4-|
A--------------------------|-----------------------------------------------|
E---3----------------------|--3----------2----------------0-0--------------|

Chorus2

e------------3-----------------2p0-----------------------------------------|
B------------3---2------2------3---3--2---3-2------------------------------|
G--2h4-2--4--4---2----2---2----2----------4---4--2-------------------------|
D---------5------2--2-------2--0---4------4------2-------------------------|
A----------------0------------------------2------0-------------------------|
E---------3----------------------------------------------------------------|

e------3-----------------------------------------------------------------|
B------3--2-----2-----33-3h5-3-------3------3----------------------------|
G---4-----2---2---2------------------0----0------------------------------|
D---5-----2-2-------2-------------4-----4--------------------------------|
A---------0--------------------------------------------------------------|
E---3---------------------------0----------------------------------------|

e------------3-----------------2p0-----------------------------------------|
B------------3---2------2------3---3--2---3-2------------------------------|
G--2h4-2--4--4---2----2---2----2----------4---4--2-------------------------|
D---------5------2--2-------2--0---4------4------2-------------------------|
A----------------0------------------------2------0-------------------------|
E---------3----------------------------------------------------------------|

e------3-----------------------------------------------------------------|
B------3--2-----2-----33-3h5-3-------3------3--3-----3-------------------|
G---4-----2---2---2------------------0----0----0---0---------------------|
D---5-----2-2-------2-------------4-----4----4---4-----------------------|
A---------0--------------------------------------------------------------|
E---3---------------------------0----------------------------------------|

Bridge X2

e---s/10----5------5----5---5----3--5-----3-5-----5-------------|
B-----------3----3------5--5--5-----5---5---3---3---------------|
G-----------4--4--------6-6----6----5-5-----4-4-----------------|
D-----------------------------------3-------2-------------------|
A---------------------------------------------------------------|
E-----------3-----------5---------------------------------------|


e---------------------------|
B----3--2-------3-3p2-------|
G--4----2--------------4p2--|
D--5----2-------------------|
A-------0-------------------|
E--3------------------------|

e--------------------------|-----------------------2-----------------------|
B---------------3-3p2------|--------3-5---------5----2----2s3----3-----3---|
G---4---4-2-----------4p2--|--4---4----------2------------0-0----0---0-----|
D---5-5-----4-2------------|--5-5----------2--------------3s4--4---4-----4-|
A--------------------------|-----------------------------------------------|
E---3----------------------|--3----------2----------------0-0--------------|


Outro

e-----------------------------------------------------------------------|
B--3p2-3---3--------------2-3p2-------1p0-1---1----------1p0------------|
G--------4-------2-----2--------2-----------2----0----0------0----------|
D-------------------2-------------2-----------------2----------2--------|
A----------------0------------------------------------------------------|
E--3----------------------------------1----------0----------------------|


e-------------------------------------------------------------------------3-|
B--3p2-3---3--------------2-3p2-------1p0-1---1----------1p0------1p0-----3-|
G--------4-------2-----2--------2-----------2----0----0------0-------0----5-|
D-------------------2-------------2-----------------2----------2-------2--4-|
A----------------0--------------------------------------------------------4-|
E--3----------------------------------1----------0------------------------3-|
comments
print report bad tab
13 comments total. Showing first comments.
0 reply
metallica_102 wrote on July 8 2009, 07:48 am

its pretty good just a little complicated but well done man 4/5 from me oh dam it now i feel like i shouldve given 5 since this is like your interpratation

+2 reply
Dark Circle 666 wrote on July 8 2009, 08:42 am

This is great.
Thank You
R.I.P Michael Jackson

+2 reply
metallica_102 wrote on July 9 2009, 04:06 am

after taking alot of time to play it right from your tab i realised its perfect thank you alot

I want to post or [tab]
guest
You may want to rate the tab now too:
select rating
Please do not post tabs as comments. Select "correction" instead!