Oops, an error
Loading. Please wait.

Human Nature Tab

version 2
version 2

Whole song

Interactive

Video

42,616 views 18 this week
no commentswrite comment
1 2 3 4 5
please rate
add to favorites
launch autoscroll
font size
0
reset
how to read this tab
guitar tuner
Tab Pro tools
  • play this tab
  • loop segment
  • change instrument
  • show fretboard
  • metronome
×
Best way to learn
"Human Nature"
Autoscroll
slow
fast
+/-
esc
set tempo
stop
Contributor
Difficulty
intermediate
HUMAN NATURE
By
MICHAEL JACKSON
Covered by
JOHN MAYER

Tabbed by – Tony Revord
Email:tonyrevord@gmail.com

This was my favorite performance at MJ’s memorial. 
This is more my version of John and Michael’s versions combined. 
I just listened to his version and made it work for both. 
Listen to both versions to get the feel of the song. 
If you have any questions, comments, or suggestions email me.
By the way use your thumb for all the low E string notes.


Intro & Verse 1&2
e----------------------------------------------------|
B----3-5----2h4p4-----------------3-5----------------|
G-3/4--6----------4-2-2h4p2p0--3/4--6----------------| x 3
D-------------------------------------4-2h4p2-2-2----|
A----------------------------------------------------|
E-2/3--5----3-----3-3----------2/3--5---3-----3-3----|

Last Part of verse before chorus 
e----------------------------------------------------|
B----3-5----2h4p4-----------------3-5----------------|
G-3/4--6----------4-2-2h4p2p0--3/4--6------3--3-3----| x 1
D-------------------------------------4-2h4----------|
A----------------------------------------------------|
E-2/3--5----3-----3-3----------2/3--5---3-----3-3----|

Chorus 1
e--------------------------5-----------------|
B-3--5--10--5---5-5-3----3-55----------------|
G-4--6—-9p7-7p6-7-6-4p2--4-66-7-7-7/9-7-4----| x 2
D--------------------------------------------|
A--------------------------------------------|
E-3--5--10--5---5-5-3----3--5-----------3----|

Verse 3
e----------------------------------------------------|
B----3-5----2h4p4-----------------3-5----------------|
G-3/4--6----------4-2-2h4p2p0--3/4--6----------------| x 1
D-------------------------------------4-2h4p2-2-2----|
A----------------------------------------------------|
E-2/3--5----3-----3-3----------2/3--5---3-----3-3----|

Last Part of verse before chorus 
e----------------------------------------------------|
B----3-5----2h4p4-----------------3-5----------------|
G-3/4--6----------4-2-2h4p2p0--3/4--6------3--3-3----| x 1
D-------------------------------------4-2h4----------|
A----------------------------------------------------|
E-2/3--5----3-----3-3----------2/3--5---3-----3-3----|

Chorus 2
e--------------------------5-----------------|
B-3--5--10--5---5-5-3----3-55----------------|
G-4--6—-9p7-7p6-7-6-4p2--4-66-7-7-7/9-7-4----| x 2
D--------------------------------------------|
A--------------------------------------------|
E-3--5--10--5---5-5-3----3--5-----------3----|

Repeat the end of chorus thing twice
e----------------|
B----------------|
G-7-7-7/9-7-4----| x 2
D----------------|
A----------------|
E-----------3----|
                  
Right after that part you can solo. 
I’m not going to tab out a solo. 
You could do a solo or do the little vocal/synth 
thing he does right under this.

e-----------------------------------|
B-15/10~~~~~~~~~~~~-13/8~~~~~~~~~~~~|
G-----------------------------------| 
D-----------------------------------|
A-----------------------------------|
E-----------------------------------|

Verse 4
e----------------------------------------------------|
B----3-5----2h4p4-----------------3-5----------------|
G-3/4--6----------4-2-2h4p2p0--3/4--6----------------| x 1
D-------------------------------------4-2h4p2-2-2----|
A----------------------------------------------------|
E-2/3--5----3-----3-3----------2/3--5---3-----3-3----|

Last Part of verse before chorus 
e----------------------------------------------------|
B----3-5----2h4p4-----------------3-5----------------|
G-3/4--6----------4-2-2h4p2p0--3/4--6------3--3-3----| x 1
D-------------------------------------4-2h4----------|
A----------------------------------------------------|
E-2/3--5----3-----3-3----------2/3--5---3-----3-3----|

Chorus 3
e--------------------------5-----------------|
B-3--5--10--5---5-5-3----3-55----------------|
G-4--6—-9p7-7p6-7-6-4p2--4-66-7-7-7/9-7-4----| Repeat until end
D--------------------------------------------|
A--------------------------------------------|
E-3--5--10--5---5-5-3----3--5-----------3----|
                  


comments
We did not receive enough feedback on this tab! Please rate:
print report bad tab
1 2 3 4 5
I want to post or [tab]
guest
You may want to rate the tab now too:
select rating
Please do not post tabs as comments. Select "correction" instead!