Oops, an error
Loading. Please wait.

I Just Cant Stop Loving You Bass Tab

version 1
version 1

Whole song

Interactive

22 views 1 this week
no commentswrite comment
1 2 3 4 5
3 more votes to show rating
add to favorites
launch autoscroll
font size
0
reset
guitar tuner
Autoscroll
slow
fast
+/-
esc
set tempo
stop
Help us to improve Ultimate-Guitar.com Take our survey!
×
Original on 5-strings bass but this is still excellent on 4-strings

Intro
G|---------------------------------|--------------------5------------|
D|---------------------------------|----------------------------5----|
A|3-----------3---3----------------|3-----------3---3----------------|
E|---------------------------------|---------------------------------|

G|5--------------------------------|------------12-------------------|
D|---------------------------------|----------------15------14-\-----|
A|---------------------------------|---------------------------------|
E|---------------------------------|---------------------------------|

Verse 1 :
Michael’s part :
G|---------------------------------|---------------------------------|
D|10-------------------------------|---------------------------------|
A|---------------------------------|---------------------------------|
E|---------------------------------|---------------------------------|

G|---------------------------------|---------------------------------|
D|---------------------------------|------------------------5--\-----|
A|---------------------------------|---------------------------------|
E|---------------------------------|---------------------------------|

G|5--------------------------------|---------------------------------|
D|---------------------------------|---------------------------------|
A|---------------------------------|---------------------------------|
E|---------------------------------|---------------------------------|

G|5--------------------------------|---------------------------------|
D|---------------------------------|---------------------------------|
A|---------------------------------|---------------------------------|
E|---------------------------------|---------------------------------|

G|---------------------------------|---------------------------------|
D|3--------------------------------|---------------------------------|
A|---------------------------------|------------------------8--------|
E|---------------------------------|1--------------------------------|

G|---------------------------------|---------------------------------|
D|---------------------------------|7--------------------------------|
A|8--------------------------------|---------------------------------|
E|---------------------------------|---------------------------------|

G|---------------------------------|---------------------------------|
D|8--------------------------------|---------------------------------|
A|---------------------------------|---------------------------------|
E|---------------------------------|---------------------------------|

G|---------------------------------|---------------------------------|
D|---------------------------------|5---------------------------5----|
A|6--------------------------------|---------------------------------|
E|---------------------------------|---------------------------------|

Siedah’s part :
G|---------------------------------|---------------------------------|
D|---------------------------------|---------------------------------|
A|3-----------3---3----------------|3-----------3---3----------------|
E|---------------------------------|---------------------------------|

G|---------------------------------|---------------------------------|
D|---------------------------------|---------------------------------|
A|---------------------------------|---------------------------------|
E|3-----------3---3----------------|3-----------3---3----------------|

G|---------------------------------|---------------------------------|
D|---------------------------------|---------------------------------|
A|3-----------3---3----------------|3-----------3---3-----------3----|
E|---------------------------------|---------------------------------|

G|---------------------------------|---------------------------------|
D|---------------------------------|---------------------------------|
A|3-----------3---3----------------|3-----------3---3----------------|
E|---------------------------------|---------------------------------|

G|---------------------------------|---------------------------------|
D|---------------------------------|---------------------------------|
A|---------------------------------|---------------------------------|
E|1-----------1---1----------------|1-----------1---1-----------0----|

G|---------------------------------|---------------------------------|
D|---------------------------------|---------------------------------|
A|---------------------------------|0-----------0---0----------------|
E|1-----------1---1----------------|---------------------------------|

G|---------------------------------|---------------------------------|
D|---------------------------------|---------------------------------|
A|1-----------1---1----------------|1-----------1---1----------------|
E|---------------------------------|---------------------------------|

G|---------------------------------|---------------------------------|
D|---------------------------------|----------------5----------------|
A|6-----------6---6----------------|---------------------------------|
E|---------------------------------|3-----------3--------------------|

Chorus :
G|---------------------------------|---------------------------------|
D|---------------------------------|---------------------------------|
A|----------------------------3----|------------3---3----------------|
E|3-----------3---3----------------|---------------------------------|

G|---------------------------------|---------------------------------|
D|---------------------------------|---------------------------------|
A|----------------------------3----|------------3---3----------------|
E|3-----------3---3----------------|---------------------------------|

G|---------------------------------|---------------------------------|
D|---------------------------------|---------------------------------|
A|---------------------------------|------------6--------------------|
E|3-----------3---3----------------|1---------------------------3----|

G|---------------------------------|---------------------------------|
D|---------------------------------|---------------------------------|
A|---------------------------------|---------------------------------|
E|------------3---3----------------|3--------------------------------|

Interlude :
G|---------------------------------|---------------------------------|
D|---------------------------------|--------------------7---5--\-----|
A|3-----------3---3----------------|3-----------3---3----------------|
E|---------------------------------|---------------------------------|

Verse 2 :
G|---------------------------------|---------------------------------|
D|---------------------------------|---------------------------------|
A|3-----------3---3----------------|3-----------3---3----------------|
E|---------------------------------|---------------------------------|

G|---------------------------------|---------------------------------|
D|---------------------------------|---------------------------------|
A|---------------------------------|----------------5-------0--------|
E|3-----------3---3----------------|3-----------3--------------------|

G|---------------------------------|---------------------------------|
D|---------------------------------|---------------------------------|
A|3-----------3---3-----------3----|3-----------3---3----------------|
E|---------------------------------|---------------------------------|

G|---------------------------------|---------------------------------|
D|---------------------------------|---------------------------------|
A|3-----------3---3----------------|3-----------3---3----------------|
E|---------------------------------|------------------------3--------|

G|---------------------------------|---------------------------------|
D|---------------------------------|---------------/4----------------|
A|---------------------------------|---------------------------------|
E|1-----------1---1----------------|1-----------1--------------------|

G|---------------------------------|---------------------------------|
D|---------------------------------|---------------------------------|
A|---------------------------------|----------------------------0----|
E|1-----------1---1----------------|5-----------5---5----------------|

G|---------------------------------|---------------------------------|
D|---------------------------------|---------------------------------|
A|1-----------1---1----------------|1-----------1---1----------------|
E|----------------------------0----|---------------------------------|

G|---------------------------------|---------------------------------|
D|---------------------------------|---------------------------------|
A|6-----------6---6-----------6-5--|---------------------------------|
E|---------------------------------|3-----------3---3----------------|

Chorus :
G|---------------------------------|---------------------------------|
D|---------------------------------|---------------------------------|
A|----------------------------3----|------------3---3----------------|
E|3-----------3---3----------------|---------------------------------|

G|---------------------------------|---------------------------------|
D|---------------------------------|---------------------------------|
A|----------------------------3----|------------3---3----------------|
E|3-----------3---3----------------|---------------------------------|

G|---------------------------------|---------------------------------|
D|---------------------------------|---------------------------------|
A|---------------------------------|------------6--------------------|
E|3-----------3---3----------------|1---------------------------3----|

G|---------------------------------|---------------------------------|
D|---------------------------------|---------------------------------|
A|---------------------------------|---------------------------------|
E|------------3---3-------12---\---|3--------------------------------|

Interlude :
G|---------------------------------|
D|---------------------------------|
A|3-----------3---3-----------3----|
E|---------------------------------|

Bridge :
G|---------------------------------|---------------------------------|
D|---------------------------------|---------------------------------|
A|1-----------1---1-----------/----|6-----------6---6-----------6----|
E|---------------------------------|---------------------------------|

G|---------------------------------|---------------------------------|
D|---------------------------------|---------------------------------|
A|4-----------4---4----------------|---------------------------------|
E|---------------------------------|2-----------2---2----------------|

G|---------------------------------|---------------------------------|
D|---------------------------------|---------------------------------|
A|2-----------2---2----------------|---------------------------------|
E|---------------------------------|0-----------0---0-----------3----|

G|---------------------------------|---------------------------------|
D|---------------------------------|---------------------------------|
A|---------------------------------|----0---2---4-------4------------|
E|4-----------4---4-----------4----|4-----------------------2--------|

Chorus : (fade out)
G|---------------------------------|---------------------------------|
D|---------------------------------|---------------------------------|
A|----------------------------4----|------------4---4----------------|
E|4-----------4---4----------------|------------------------4--------|

G|---------------------------------|---------------------------------|
D|---------------------------------|---------------------------------|
A|----------------------------4----|------------4---4----------------|
E|4-----------4---4----------------|------------------------4--------|

G|---------------------------------|---------------------------------|
D|---------------------------------|---------------------------------|
A|---------------------------------|---------------------------------|
E|4-----------4---4----------------|2-----------0---------------4----|

G|---------------------------------|
D|---------------------------------|
A|---------------------------------|
E|------------4---4----------------|
Suggest correction
Give kudos to tab author, rate the tab!
1 2 3 4 5
comments
print report bad tab
guest
You may want to rate the tab now too:
select rating
Wanna post a correction for this tab? Suggest correction