Oops, an error
Loading. Please wait.

Im So Blue Bass Tab

16 views 1 this week
no commentswrite comment
1 2 3 4 5
2 more votes to show rating
add to favorites
launch autoscroll
font size
0
reset
guitar tuner
Autoscroll
slow
fast
+/-
esc
set tempo
stop
Help us to improve Ultimate-Guitar.com Take our survey!
×
Author
Difficulty
Intro :
G|---------------------------------|---------------------------------|
D|---------------------------------|---------------------------------|
A|---------------------------------|5-----------5---5----------------|
E|5-----------5---5----------------|---------------------------------|

G|---------------------------------|---------------------------------|
D|---------------------------------|---------------------------------|
A|---------------------------------|5-----------5---5----------------|
E|5-----------5---5----------------|----------------------------0-2--|

G|---------------------------------|---------------------------------|
D|---------------------------------|---------------------------------|
A|---------------------------------|5-----------5---5----------------|
E|5-----------5---5----------------|---------------------------------|

G|---------------------------------|---------------------------------|
D|---------------------------------|---------------------------------|
A|---------------------------------|5-----------5---5----------------|
E|5-----------5---5----------------|---------------------------------|

Verse 1 :
G|---------------------------------|---------------------------------|
D|---------------------------------|---------------------------------|
A|---------------------------------|---------------------------------|
E|5-----------5---5----------------|5-----------5---5----------------|

G|---------------------------------|---------------------------------|
D|---------------------------------|---------------------------------|
A|---------------------------------|---------------------------------|
E|5-----------5---5----------------|5-----------5---5----------------|

G|---------------------------------|---------------------------------|
D|---------------------------------|---------------------------------|
A|---------------------------------|---------------------------------|
E|5-----------5---5----------------|5-----------5---5----------------|

G|---------------------------------|---------------------------------|
D|---------------------------------|---------------------------------|
A|---------------------------------|---------------------------------|
E|5-----------5---5----------------|5-----------5---5----------------|

Pre-Chorus :
G|---------------------------------|---------------------------------|
D|---------------------------------|---------------------------------|
A|5-----------5---5-----------5----|4-----------4---4----------------|
E|---------------------------------|---------------------------------|

G|---------------------------------|---------------------------------|
D|---------------------------------|---------------------------------|
A|5-----------5---5----------------|4-----------4---4----------------|
E|---------------------------------|---------------------------------|

G|---------------------------------|---------------------------------|
D|---------------------------------|---------------------------------|
A|5-----------5---5----------------|4-----------4---4----------------|
E|---------------------------------|---------------------------------|

G|---------------------------------|---------------------------------|
D|---------------------------------|---------------------------------|
A|2-----------2---2----------------|7-------5-------4-----4-2--------|
E|---------------------------------|---------------------------------|

Chorus :
G|---------------------------------|---------------------------------|
D|---------------------------------|---------------------------------|
A|---------------------------------|5-----------5---5----------------|
E|5-----------5---5-----------0----|---------------------------------|

G|---------------------------------|---------------------------------|
D|---------------------------------|---------------------------------|
A|---------------------------------|5-----------5---5----------------|
E|5-----------5---5----------------|---------------------------------|

G|---------------------------------|---------------------------------|
D|---------------------------------|---------------------------------|
A|---------------------------------|5-----------5---5----------------|
E|5-----------5---5-----------0----|---------------------------------|

G|---------------------------------|---------------------------------|
D|---------------------------------|---------------------------------|
A|---------------------------------|5-----------5---5----------------|
E|5-----------5---5----------------|---------------------------------|

Verse 2 :
G|---------------------------------|---------------------------------|
D|---------------------------------|---------------------------------|
A|---------------------------------|---------------------------------|
E|5-----------5---5----------------|5-----------5---5----------------|

G|---------------------------------|---------------------------------|
D|---------------------------------|---------------------------------|
A|---------------------------------|---------------------------------|
E|5-----------5---5----------------|5-----------5---5-----------0-2--|

G|---------------------------------|---------------------------------|
D|---------------------------------|---------------------------------|
A|---------------------------------|---------------------------------|
E|5-----------5---5----------------|5-----------5---5----------------|

G|---------------------------------|---------------------------------|
D|---------------------------------|---------------------------------|
A|---------------------------------|---------------------------------|
E|5-----------5---5----------------|5-----------5---5----------------|

Pre-Chorus :
G|---------------------------------|---------------------------------|
D|---------------------------------|---------------------------------|
A|5-----------5---5----------------|4-----------4---4----------------|
E|---------------------------------|---------------------------------|

G|---------------------------------|---------------------------------|
D|---------------------------------|---------------------------------|
A|5-----------5---5----------------|4-----------4---4----------------|
E|---------------------------------|---------------------------------|

G|---------------------------------|---------------------------------|
D|---------------------------------|---------------------------------|
A|5-----------5---5----------------|4-----------4---4-----------4-3--|
E|---------------------------------|---------------------------------|

G|---------------------------------|---------------------------------|
D|---------------------------------|---------------------------------|
A|2-----------2---2----------------|7-------5-------4-----4-2--------|
E|---------------------------------|---------------------------------|

Chorus :
G|---------------------------------|---------------------------------|
D|---------------------------------|---------------------------------|
A|---------------------------------|5-----------5---5----------------|
E|5-----------5---5-----------0----|------------------------0--------|

G|---------------------------------|---------------------------------|
D|---------------------------------|---------------------------------|
A|---------------------------------|5-----------5---5----------------|
E|5-----------5---5-----------0----|---------------------------------|

G|---------------------------------|---------------------------------|
D|---------------------------------|---------------------------------|
A|---------------------------------|5-----------5---5----------------|
E|5-----------5---5-----------0----|------------------------0--------|

G|---------------------------------|---------------------------------|
D|---------------------------------|---------------------------------|
A|---------------------------------|5-----------5---5----------------|
E|5-----------5---5----------------|---------------------------------|

Solo (synth harmonica) :
G|---------------------------------|---------------------------------|
D|---------------------------------|---------------------------------|
A|---------------------------------|---------------------------------|
E|5-----------5---5----------------|5-----------5---5----------------|

G|---------------------------------|---------------------------------|
D|---------------------------------|---------------------------------|
A|---------------------------------|---------------------------------|
E|5-----------5---5----------------|5-----------5---5-----------0-2--|

G|---------------------------------|---------------------------------|
D|---------------------------------|---------------------------------|
A|---------------------------------|---------------------------------|
E|5-----------5---5----------------|5-----------5---5----------------|

G|---------------------------------|---------------------------------|
D|---------------------------------|---------------------------------|
A|---------------------------------|---------------------------------|
E|5-----------5---5----------------|5-----------5---5----------------|

Pre-Chorus :
G|---------------------------------|---------------------------------|
D|---------------------------------|---------------------------------|
A|5-----------5---5----------------|4-----------4---4----------------|
E|---------------------------------|---------------------------------|

G|---------------------------------|---------------------------------|
D|---------------------------------|---------------------------------|
A|5-----------5---5-----------5----|4-----------4---4----------------|
E|---------------------------------|---------------------------------|

G|---------------------------------|---------------------------------|
D|---------------------------------|---------------------------------|
A|5-----------5---5----------------|4-----------4---4-----------5----|
E|---------------------------------|---------------------------------|

G|---------------------------------|---------------------------------|
D|---------------------------------|---------------------------------|
A|2-----------2---2----------------|7-------5-------4-----4-2--------|
E|---------------------------------|---------------------------------|

Chorus : (Outro)
G|---------------------------------|---------------------------------|
D|---------------------------------|---------------------------------|
A|---------------------------------|5-----------5---5----------------|
E|5-----------5---5-----------0----|------------------------0---2----|

G|---------------------------------|---------------------------------|
D|---------------------------------|---------------------------------|
A|---------------------------------|5-----------5---5----------------|
E|5-----------5---5-----------0----|----------------------------0-2--|

G|---------------------------------|---------------------------------|
D|---------------------------------|---------------------------------|
A|---------------------------------|5-----------5---5----------------|
E|5-----------5---5----------------|---------------------------------|

G|---------------------------------|---------------------------------|
D|---------------------------------|---------------------------------|
A|---------------------------------|7-------5-------4-----4-2--------|
E|5-----------5---5----------------|---------------------------------|

G|---------------------------------|---------------------------------|
D|---------------------------------|---------------------------------|
A|---------------------------------|5-----------5---5----------------|
E|5-----------5---5-----------0----|------------------------0--------|

G|---------------------------------|---------------------------------|
D|---------------------------------|---------------------------------|
A|---------------------------------|5-----------5---5----------------|
E|5-----------5---5-----------0----|---------------------------------|

G|---------------------------------|---------------------------------|
D|---------------------------------|---------------------------------|
A|---------------------------------|5-----------5---5----------------|
E|5-----------5---5-----------0----|---------------------------------|

G|---------------------------------|---------------------------------|
D|---------------------------------|---------------------------------|
A|---------------------------------|7-------5-------4-----4-2--------|
E|5-----------5---5----------------|---------------------------------|

G|---------------------------------|---------------------------------|
D|---------------------------------|---------------------------------|
A|---------------------------------|5-----------5---5----------------|
E|5-----------5---5-------0--------|----------------------------0-2--|

G|---------------------------------|---------------------------------|
D|---------------------------------|---------------------------------|
A|---------------------------------|5-----------5---5----------------|
E|5-----------5---5----------------|------------------------2--------|

G|---------------------------------|---------------------------------|
D|---------------------------------|---------------------------------|
A|---------------------------------|5-----------5---5----------------|
E|5-----------5---5-----------0----|---------------------------------|

G|---------------------------------|---------------------------------|
D|---------------------------------|---------------------------------|
A|---------------------------------|7-------5-------4-----4-2--------|
E|5-----------5---5----------------|---------------------------------|
Suggest correction
Give kudos to tab author, rate the tab!
1 2 3 4 5
comments
print report bad tab
guest
You may want to rate the tab now too:
select rating
Wanna post a correction for this tab? Suggest correction