Oops, an error
Loading. Please wait.

Off The Wall Bass

version 1
version 1

Whole song

Interactive

25,872 views 27 this week
no commentswrite comment
1 2 3 4 5
x 8
add to favorites
launch autoscroll
font size
0
reset
guitar tuner
×
Best way to learn
"Off The Wall"
Autoscroll
slow
fast
+/-
esc
set tempo
stop
Author
Difficulty
  follow
intermediate
[Intro]
G|--------------------------------------------------------------| (x3)
D|--------------------------4-----------------------------------|
A|----4---6--(x3)---4---6---------------------------------------|
E|--------------------------------------------------------------|

[Verse]
G|---------------6----10----6--------------------8-----6--------|
D|----------8-------------------------------8-------------------|
A|-6---9-------------------------6----9-------------------------|
E|--------------------------------------------------------------|

[Chorus]
G|--------------------------------------------------------------|
D|------------------------13-----------------13----16-----------|
A|--11-----11-----14-----------14----14-------------------------|
E|--------------------------------------------------------------|

G|--------------------------------------------------------------|
D|------------------3-------------------------------------------|
A|--1----1----4-------------------------------------------------|
E|------------------------4-----2----4----0-----2---3----4------|

G|--------------------------------------------------------------|
D|------------------------13-----------------13----16-----------|
A|--11-----11-----14-----------14----14-------------------------|
E|--------------------------------------------------------------|

G|--------------------------------------------------------------|
D|------------------3------4----3-------------------------------|
A|--1----1----4---------------------6----6----4-----------------|
E|--------------------------------------------------------------|

(Middle 8)
G|--------------------------------------------------------------|
D|--------------------------------------------------------------|
A|--------------------------------------------------------------|
E|-7----7--7--------6----6---6---------4--4--4--4-----8----(x2)-|
Suggest correction
comments
print report bad tab
guest
You may want to rate the tab now too:
select rating
Wanna post a correction for this tab? Suggest correction