Oops, an error
Loading. Please wait.

On The Line Bass Tab

16 views 3 this week
no commentswrite comment
1 2 3 4 5
3 more votes to show rating
add to favorites
launch autoscroll
font size
0
reset
guitar tuner
Autoscroll
slow
fast
+/-
esc
set tempo
stop
Help us to improve Ultimate-Guitar.com Take our survey!
×
Author
Difficulty
intermediate
Intro :
G|---------------------------------|---------------------------------|
D|---------------------------------|----------------8----------------|
A|6---------------5-----------3----|------------------------6--------|
E|---------------------------------|---------------------------------|

G|---------------------------------|---------------------------------|
D|---------------------------------|------------------------8---\----|
A|---------------------------------|--------------------8------------|
E|4-----------4---3-------3---1----|------------6--------------------|

G|---------------------------------|---------------------------------|
D|------------8--------------------|------------5-\------------------|
A|6---------------5-----------3----|----------------1-------6--------|
E|---------------------------------|---------------------------------|

G|---------------------------------|---------------------------------|
D|---------------------------------|---------------------------------|
A|---------------------------------|------------1--------------------|
E|4-----------4---3-------3---1----|---------------------------------|

G|---------------------------------|
D|---------------------------------|
A|---------------------------------|
E|----------------------------8-\--|

Verse 1 :
G|---------------------------------|---------------------------------|
D|---------------------------------|---------------------------------|
A|----------------------------3----|----------------3-------3--------|
E|1-----------1---3----------------|--------------------3------------|

G|---------------------------------|---------------------------------|
D|---------------------------------|---------------------------------|
A|----------------------------3----|--------------1-3-------3--------|
E|1-----------1---3----------------|--------------------3------------|

G|---------------------------------|---------------------------------|
D|---------------------------------|---------------------------------|
A|----------------------------3----|----------------3-------3--------|
E|1-----------1---3----------------|--------------------3------------|

G|---------------------------------|---------------------------------|
D|---------------------------------|---------------------------------|
A|---------------------------------|---------------------------------|
E|5-----------5---5-----------6----|------------6---6-------4---3----|

G|---------------------------------|---------------------------------|
D|---------------------------------|---------------------------------|
A|----------------------------3----|----------------3-------3--------|
E|1-----------1---3----------------|--------------3-----3------------|

G|---------------------------------|---------------------------------|
D|---------------------------------|---------------------------------|
A|----------------------------3----|----------------3-------3--------|
E|1-----------1---3----------------|--------------3-----3------------|

G|---------------------------------|---------------------------------|
D|---------------------------------|---------------------------------|
A|----------------------------3----|----------------3-------3--------|
E|1-----------1---3----------------|--------------3-----3-------6----|

G|---------------------------------|---------------------------------|
D|---------------------------------|---------------------------------|
A|---------------------------------|---------------------------------|
E|5-----------5---5-----------6----|----------------6----------------|

Chorus :
G|---------------------------------|---------------------------------|
D|---------------------------------|---------------------------------|
A|6-----------6---5-----------3----|------------3-----------6--------|
E|---------------------------------|----------------6----------------|

G|---------------------------------|---------------------------------|
D|---------------------------------|----------------8-----------8----|
A|---------------------------------|------------8-----------6--------|
E|4-----------4---3-------3---1----|---------------------------------|

G|---------------------------------|---------------------------------|
D|---------------------------------|------------5-6------------------|
A|6-----------6---5-----------3----|------------------------6--------|
E|---------------------------------|----------------6----------------|

G|---------------------------------|---------------------------------|
D|---------------------------------|---------------------------------|
A|---------------------------------|---------------------------------|
E|4-----------4---3-------3---1----|--------/---6--------------------|

G|---------------------------------|
D|---------------------------------|
A|---------------------------------|
E|---------------------------------|

Verse 2 :
G|---------------------------------|---------------------------------|
D|---------------------------------|---------------------------------|
A|----------------------------3----|----------------3-------3--------|
E|1-----------1---3----------------|--------------------3-------2-2--|

G|---------------------------------|---------------------------------|
D|---------------------------------|---------------------------------|
A|----------------------------3----|----------------3-------3--------|
E|1-----------1---3----------------|--------------------3------------|

G|---------------------------------|---------------------------------|
D|---------------------------------|----------------------------5----|
A|----------------------------3----|----------------3-------3--------|
E|1-----------1---3----------------|--------------------3------------|

G|---------------------------------|------------5-h-7----------------|
D|---------------------------------|------------------8-----8---8----|
A|---------------------------------|----------8----------------------|
E|5-----------5---5-----------6----|---------------------------------|

G|---------------------------------|---------------------------------|
D|---------------------------------|---------------------------------|
A|----------------------------3----|------------1---3-------3---3----|
E|1-----------1---3----------------|--------------------3------------|

G|---------------------------------|----------5h7---5----------------|
D|---------------------------------|---------------------------------|
A|----------------------------3----|--------------------3-------3----|
E|1-----------1---3----------------|------------------------3--------|

G|---------------------------------|---------------------------------|
D|---------------------------------|---------------------------------|
A|----------------------------3----|----------------3-------3--------|
E|1-----------1---3----------------|--------------------3-------6----|

G|---------------------------------|---------------------------------|
D|---------------------------------|---------------------------------|
A|---------------------------------|---------------------------------|
E|5-----------5---5-----------6----|6---6---6---6---6----------------|

Chorus :
G|---------------------------------|---------------------------------|
D|---------------------------------|---------------------------------|
A|6-----------6---5-----------3----|------------3-----------6--------|
E|---------------------------------|----------------6----------------|

G|---------------------------------|---------------------------------|
D|---------------------------------|----------6h8-8-8-------8---6----|
A|------------6--------------------|--------------------8------------|
E|4---------------3---3-------1----|---------------------------------|

G|---------------------------------|---------------------------------|
D|---------------------------------|---------------------------------|
A|6---------------5---6---5---3----|--------------------8---6--------|
E|------------6-8------------------|------------7---6----------------|

G|---------------------------------|---------------------------------|
D|---------------------------------|---------------------------------|
A|---------------------------------|---------------------------------|
E|4-----------4---3-------3---1----|--------/---6-6-6-----------4----|

Bridge :
G|---------------------------------|---------------------------------|
D|------------------------5--------|---------------------------------|
A|---------------------------------|--------------------8---6--------|
E|3-----------3---3----------------|4-----------4---4-----------4----|

G|---------------------------------|---------------------------------|
D|---------------------------------|--------------------8------------|
A|---------------------------------|------------------------6--------|
E|3-----------3---3-----------3----|4-----------4---4-----------4----|

G|---------------------------------|---------------------------------|
D|---------------------------------|----------------------------5----|
A|---------------------------------|3-----------3---3---5---6--------|
E|3-----------3---3-----------3----|---------------------------------|

G|---------------------------------|---------------------------------|
D|3-----------5---5----------------|---------------------------------|
A|---------------------------------|---------------------------------|
E|----------------------------6----|6---6---6---7---7---7---7---0----|

Chorus :
G|---------------------------------|---------------------------------|
D|---------------------------------|----------------------4-2--------|
A|------------7---6-------6---4----|--------4---4-3-2---2------------|
E|0-/-7---0------------------------|---------------------------------|

G|---------------------------------|---------------------------------|
D|---------------------------------|---------------------------------|
A|------------7-----------4--------|---------------------------------|
E|5---------------4-----------2----|----------5h7-7-7---8---7---4----|

G|---------------------------------|---------------------------------|
D|---------------------------------|---------------------------------|
A|------------7---6---7---6---4----|------------------------7--------|
E|0---------9----------------------|------------5-4-7-----------0----|

G|---------------------------------|---------------------------------|
D|---------------------------------|---------------------------------|
A|---------------------------------|----7---6---3---3---3------------|
E|5-----------5---4---4---0---2----|------------------------3--------|

G|---------------------------------|---------------------------------|
D|---------------------------------|---------------------------------|
A|---------------------------------|---------------------------------|
E|---------------------------------|---------------------------------|

G|---------------------------------|---------------------------------|
D|---------------------------------|---------------------------------|
A|---------------------------------|---------------------------------|
E|---------------------------------|---------------------------------|

G|---------------------------------|---------------------------------|
D|---------------------------------|---------------------------------|
A|8-----------8---7-----------5----|------------5---3-------8--------|
E|---------------------------------|---------------------------------|

G|---------------------------------|------------------------0h3-0----|
D|---------------------------------|---------------------------------|
A|---------------------------------|------------3---3----------------|
E|6-----------6---5-----------3----|---------------------------------|

G|2--------------------------------|---------------------------------|
D|----3---3------------------------|------------------------3--------|
A|----------------7-----------5----|------------5---3----------------|
E|---------------------------------|---------------------------------|

G|---------------------------------|---------------------------------|
D|---------------------------------|---------------------------------|
A|---------------------------------|------------3---3-----------3----|
E|6-----------6---5-----------3----|---------------------------------|

G|---------------------------------|---------------------------------|
D|3-----------3---2-------2--------|------------------------3--------|
A|----------------------------5----|------------5---3----------------|
E|---------------------------------|---------------------------------|

G|---------------------------------|---------------------------------|
D|---------------------------------|---------------------------------|
A|---------------------------------|------------3---3-----------3----|
E|6-----------6---5-----------3----|---------------------------------|
Suggest correction
Give kudos to tab author, rate the tab!
1 2 3 4 5
comments
print report bad tab
guest
You may want to rate the tab now too:
select rating
Wanna post a correction for this tab? Suggest correction