Oops, an error
Loading. Please wait.

People Of The World Bass Tab

7 views 1 this week
no commentswrite comment
1 2 3 4 5
3 more votes to show rating
add to favorites
launch autoscroll
font size
0
reset
guitar tuner
Autoscroll
slow
fast
+/-
esc
set tempo
stop
Help us to improve Ultimate-Guitar.com Take our survey!
×
Author
Difficulty
[Intro]
(00:18)
G|---------------------------------|---------------------------------|
D|---------------------------------|---------------------------------|
A|---------------------------------|---------------------------------|
E|---------------------------------|---------------------------------|

G|---------------------------------|---------------------------------|
D|---------------------------------|---------------------------------|
A|---------------------------------|---------------------------------|
E|---------------------------------|------------------------14-\-----|

[Verse 1]
G|---------------------------------|---------------------------------|
D|---------------------------------|---------------------------------|
A|----------------4-------4---4----|----------------4-------4---4----|
E|2--------------------------------|2--------------------------------|

G|---------------------------------|---------------------------------|
D|---------------------------------|---------------------------------|
A|----------------6----------------|2---------------4-------4---4----|
E|2--------------------------------|---------------------------------|

G|---------------------------------|---------------------------------|
D|---------------------------------|---------------------------------|
A|----------------4-------4---4----|----------------4-------4---4----|
E|2-------2------------------------|2-------2------------------------|

G|---------------------------------|---------------------------------|
D|---------------------------------|---------------------------------|
A|----------------6-------6---6----|----------------4-----------4----|
E|2--------------------------------|7--------------------------------|

G|---------------------------------|---------------------------------|
D|---------------------------------|---------------------------------|
A|2---------------4-------4---4----|----------------6-------6---6----|
E|---------------------------------|6--------------------------------|

G|---------------------------------|---------------------------------|
D|---------------------------------|---------------------------------|
A|---------------------------------|4--------------------------------|
E|4---------------4-------4---4----|------------------------14--\----|

[Chorus]
G|---------------------------------|---------------------------------|
D|---------------------------------|---------------------------------|
A|----------------1-------1---1----|2---------------------------4----|
E|2--------------------------------|----------------2-------2--------|

G|---------------------------------|---------------------------------|
D|---------------------------------|---------------------------------|
A|----------------1-------1---1----|2---------------4-------4---4----|
E|2--------------------------------|---------------------------------|

G|---------------------------------|---------------------------------|
D|---------------------------------|---------------------------------|
A|6---------------4-------4---4----|---------------------------------|
E|---------------------------------|7---------------6-------6---6----|

G|---------------------------------|---------------------------------|
D|---------------------------------|---------------------------------|
A|----------------4-------4---4----|-----------------------------4---|
E|4--------------------------------|2---------------2-------2--------|

[Verse 2]
G|---------------------------------|---------------------------------|
D|---------------------------------|---------------------------------|
A|----------------4-------4---4----|----------------4-------4---4----|
E|2--------------------------------|2--------------------------------|

G|---------------------------------|---------------------------------|
D|---------------------------------|---------------------------------|
A|----------------6----------------|2---------------4-------4---4----|
E|2--------------------------------|---------------------------------|

G|---------------------------------|---------------------------------|
D|---------------------------------|------------------------6--------|
A|----------------4-------4---4----|----------------4-----------4----|
E|2--------------------------------|2--------------------------------|

G|---------------------------------|---------------------------------|
D|---------------------------------|---------------------------------|
A|----------------6-------6---6----|----------------4-----------4----|
E|2--------------------------------|7--------------------------------|

G|---------------------------------|---------------------------------|
D|---------------------------------|---------------------------------|
A|2---------------4-------4---4----|----------------6-------6---6----|
E|---------------------------------|6--------------------------------|

G|---------------------------------|---------------------------------|
D|---------------------------------|---------------------------------|
A|---------------------------------|4--------------------------------|
E|4---------------4-------4---4----|--------------------14--\--------|

[Chorus]
G|---------------------------------|---------------------------------|
D|---------------------------------|---------------------------------|
A|----------------1-------1---1----|2---------------------------4----|
E|2--------------------------------|----------------2-------2--------|

G|---------------------------------|---------------------------------|
D|---------------------------------|---------------------------------|
A|----------------1-------1---1----|2---------------4-------4---4----|
E|2--------------------------------|---------------------------------|

G|---------------------------------|---------------------------------|
D|---------------------------------|---------------------------------|
A|6---------------4-------4---4----|---------------------------------|
E|---------------------------------|7---------------6-------6---6----|

G|---------------------------------|---------------------------------|
D|---------------------------------|------------------------7--------|
A|----------------4-------4---4----|----------------5-----5------5---|
E|4--------------------------------|2--------------------------------|

G|---------------------------------|---------------------------------|
D|---------------------------------|---------------------------------|
A|----------------2-------2---2----|3---------------------------5----|
E|3--------------------------------|----------------3-------3--------|

G|---------------------------------|---------------------------------|
D|---------------------------------|---------------------------------|
A|----------------2-------2---2----|3---------------5-------5---5----|
E|3--------------------------------|---------------------------------|

G|---------------------------------|---------------------------------|
D|---------------------------------|---------------------------------|
A|----------------5-------5---5----|3---------------2-------2---2----|
E|0--------------------------------|---------------------------------|

G|---------------------------------|---------------------------------|
D|---------------------------------|---------------------------------|
A|----------------5-------5---5----|----------------6-------6---6----|
E|5--------------------------------|3--------------------------------|

G|---------------------------------|---------------------------------|
D|---------------------------------|---------------------------------|
A|----------------3-------3---3----|4---------------------------6-8--|
E|4--------------------------------|----------------4-------4--------|

G|---------------------------------|---------------------------------|
D|---------------------------------|---------------------------------|
A|----------------3-------3---3----|4---------------6-------6---6----|
E|4--------------------------------|---------------------------------|

G|---------------------------------|---------------------------------|
D|---------------------------------|---------------------------------|
A|8---------------6-------6---6----|4---------------3-------3---3----|
E|---------------------------------|---------------------------------|

G|---------------------------------|---------------------------------|
D|---------------------------------|---------------------------------|
A|----------------6-------6---6----|----------------7-----/-8---7----|
E|6--------------------------------|4--------------------------------|

G|---------------------------------|---------------------------------|
D|---------------------------------|---------------------------------|
A|----------------4-------4---4----|5--------------------------------|
E|5--------------------------------|----------------5-------5---0----|

G|---------------------------------|---------------------------------|
D|---------------------------------|---------------------------------|
A|----------------4-------4---4----|5---------------7-------7---7----|
E|5--------------------------------|---------------------------------|

G|---------------------------------|---------------------------------|
D|---------------------------------|---------------------------------|
A|9---------------7-------7---7----|5---------------4-------4--------|
E|---------------------------------|----------------------------2----|

G|---------------------------------|---------------------------------|
D|----------------2-------2---2----|---------------------------------|
A|2--------------------------------|---------------------------------|
E|---------------------------------|5---------------5-------4---4----|

G|---------------------------------|---------------------------------|
D|---------------------------------|---------------------------------|
A|---------------------------------|5---------------4-------4---4----|
E|2---------------0-------0---0----|---------------------------------|

G|---------------------------------|---------------------------------|
D|------------4---2----------------|---------------------------------|
A|2---------------------------2----|0-------------7-0-----------2----|
E|---------------------------------|------------------------4--------|

G|---------------------------------|---------------------------------|
D|---------------------------------|---------------------------------|
A|---------------------------------|5---------------4-------4---4----|
E|2---------------0-------0---0----|---------------------------------|

G|---------------------------------|
D|------------4---2----------------|
A|2--------------------------------|
E|----------------------------7----|

[Outro]
(Fade-out)
G|---------------------------------|---------------------------------|
D|---------------------------------|---------------------------------|
A|---------------------------------|---------------------------------|
E|5---------------0-----0-5---0----|5---------------0-----0-7---0----|

G|---------------------------------|---------------------------------|
D|---------------------------------|---------------------------------|
A|---------------------------------|---------------------------------|
E|5---------------0-----0-7---0----|5-----------2---0-------0---0----|


************************************

| \  Slide down
| /  Slide up

************************************
Suggest correction
Give kudos to tab author, rate the tab!
1 2 3 4 5
comments
print report bad tab
guest
You may want to rate the tab now too:
select rating
Wanna post a correction for this tab? Suggest correction