Oops, an error
Loading. Please wait.

Pyt Pretty Young Thing Bass Tab

version 1
version 1

Whole song

Interactive

35,272 views 102 this week
1 commentread comment
1 2 3 4 5
x 10
add to favorites
launch autoscroll
font size
0
reset
guitar tuner
Autoscroll
slow
fast
+/-
esc
set tempo
stop
Help us to improve Ultimate-Guitar.com Take our survey!
×
Author
Artist: Michael Jackson
Song: PYT Pretty Young Thing

[Verse]
  1 + 2 + 3 + 4 + 1 + 2 + 3 + 4 + 1 + 2 + 3 + 4 + 1 + 2 + 3 + 4 + 
G|---------------|---------------|---------------|---------------|
D|--------------2|--0/4-4--------|---------------|---------------|
A|2-2-4---5------|--------2------|----0---2-----2|--0-2-2--------|
E|---------------|---------------|3-3------------|---------------|

  1 + 2 + 3 + 4 + 1 + 2 + 3 + 4 + 1 + 2 + 3 + 4 + 1 + 2 + 3 + 4 + 
G|---------------|---------------|---------------|---------------|
D|--------------2|--0/4-4--------|---------------|---------------|
A|2-2-4---5------|--------2------|----0---2-----2|--0-2-2--------|
E|---------------|---------------|3-3------------|--------------3|

[Pre-Chorus] 
 1 + 2 + 3 + 4 + 1 + 2 + 3 + 4 + 1 + 2 + 3 + 4 + 1 + 2 + 3 + 4 + 
G|---------------|---------------|---------------|---------------|
D|---------------|------4--------|---------------|---------------|
A|----0---2-0----|---------------|2-2-0-2--------|2-2-0-2--------|
E|--3---------3--|2-2-------2----|---------------|--------------3|

  1 + 2 + 3 + 4 + 1 + 2 + 3 + 4 + 1 + 2 + 3 + 4 + 1 + 2 + 3 + 4 + 
G|---------------|---------------|---------------|---------------|
D|---------------|------4--------|---------------|---------------|
A|----0---2-0----|---------------|5-5-3-5--------|2-2-0-2--------|
E|--3---------3--|2-2-------2----|---------------|---------------|

[Chorus]
  1 + 2 + 3 + 4 + 1 + 2 + 3 + 4 + 1 + 2 + 3 + 4 + 1 + 2 + 3 + 4 + 
G|---------------|---------------|---------------|---------------|
D|---------------|---------------|---------------|---------------|
A|---------------|--------0-0----|---------------|--------0-0----|
E|0-0---2-3-3-3--|---------------|0-0---2-3-3-3--|---------------|

  1 + 2 + 3 + 4 + 1 + 2 + 3 + 4 + 1 + 2 + 3 + 4 +      1 + 2 + 3 + 4 + 
G|---------------|---------------|---------------|     ----------------|
D|---------------|---------------|---------------| or  ----------------|  this is the right way
A|--------------2|--2-0-2-------2|--2-0-2--------|     --2-0-2---------|  
E|3-3-2----------|---------------|-----------(0h2)     ------------DhD#| (D hammer-on to D#)
The 0h2 is wrong, but still works, to play it properly you need a 5 string...

  1 + 2 + 3 + 4 + 1 + 2 + 3 + 4 + 1 + 2 + 3 + 4 + 1 + 2 + 3 + 4 + 
G|---------------|---------------|---------------|---------------|
D|---------------|---------------|---------------|---------------|
A|---------------|--------0-0----|---------------|--------0-0----|
E|0-0---2-3-3-3--|---------------|0-0---2-3-3-3--|---------------|

  1 + 2 + 3 + 4 + 1 + 2 + 3 + 4 + 1 + 2 + 3 + 4 + 1 + 2 + 3 + 4 + 1 + 2 + 3 + 4 +
G|---------------|---------------|---------------|---------------|---------------|
D|---------------|---------------|---------------|---------------|---------------|
A|--------------2|--2-0-2-------2|--2-0-2--------|---------------|---------------|
E|3-3-2----------|---------------|---------------|5---3-5-------5|--5---3-5------|

[Verse]
  1 + 2 + 3 + 4 + 1 + 2 + 3 + 4 + 1 + 2 + 3 + 4 + 1 + 2 + 3 + 4 + 
G|---------------|---------------|---------------|---------------|
D|--------------2|--0/4-4--------|---------------|---------------|
A|2-2-4---5------|--------2------|----0---2-----2|--0-2-2--------|
E|---------------|---------------|3-3------------|---------------|

  1 + 2 + 3 + 4 + 1 + 2 + 3 + 4 + 1 + 2 + 3 + 4 + 1 + 2 + 3 + 4 + 
G|---------------|---------------|---------------|---------------|
D|--------------2|--0/4-4--------|---------------|---------------|
A|2-2-4---5------|--------2------|----0---2-----2|--0-2-2--------|
E|---------------|---------------|3-3------------|--------------3|

[Pre-Chorus] 
 1 + 2 + 3 + 4 + 1 + 2 + 3 + 4 + 1 + 2 + 3 + 4 + 1 + 2 + 3 + 4 + 
G|---------------|---------------|---------------|---------------|
D|---------------|------4--------|---------------|---------------|
A|----0---2-0----|---------------|2-2-0-2--------|2-2-0-2--------|
E|--3---------3--|2-2-------2----|---------------|--------------3|

  1 + 2 + 3 + 4 + 1 + 2 + 3 + 4 + 1 + 2 + 3 + 4 + 1 + 2 + 3 + 4 + 
G|---------------|---------------|---------------|---------------|
D|---------------|------4--------|---------------|---------------|
A|----0---2-0----|---------------|5-5-3-5--------|2-2-0-2--------|
E|--3---------3--|2-2-------2----|---------------|---------------|

[Chorus 2]
(into break)
  1 + 2 + 3 + 4 + 1 + 2 + 3 + 4 + 1 + 2 + 3 + 4 + 1 + 2 + 3 + 4 + 
G|---------------|---------------|---------------|---------------|
D|---------------|---------------|---------------|---------------|
A|---------------|--------0-0----|---------------|--------0-0----|
E|0-0---2-3-3-3--|---------------|0-0---2-3-3-3--|---------------|

  1 + 2 + 3 + 4 + 1 + 2 + 3 + 4 + 1 + 2 + 3 + 4 +  
G|---------------|---------------|---------------|
D|---------------|---------------|---------------|
A|--------------2|--2-0-2-------2|--2-0-2--------|
E|3-3-2----------|---------------|------------3-2|

  1 + 2 + 3 + 4 + 1 + 2 + 3 + 4 + 1 + 2 + 3 + 4 + 1 + 2 + 3 + 4 + 
G|---------------|---------------|---------------|---------------|
D|---------------|---------------|---------------|---------------|
A|---------------|--------0-0----|---------------|--------0-0----|
E|0-0---2-3-3-3--|---------------|0-0---2-3-3-3--|---------------|

  1 + 2 + 3 + 4 + 1 + 2 + 3 + 4 + 1 + 2 + 3 + 4 + 1 + 2 + 3 + 4 +  
G|---------------|---------------|---------------|---------------|
D|---------------|---------------|---------------|---------------|
A|--------------2|--2-0-2-------2|--2-0-2--------|---------------|
E|3-3-2----------|---------------|--------2-3-4-5|---------------|

  1 + 2 + 3 + 4 + 1 + 2 + 3 + 4 + 1 + 2 + 3 + 4 + 1 + 2 + 3 + 4 + 
G|---------------|---------------|---------------|---------------|
D|---------------|---------------|---------------|---------------|
A|---------------|---------------|---------------|---------------|
E|--------4-5-6-7|---------------|--------2-3-4-5|---------------|

  1 + 2 + 3 + 4 + 1 + 2 + 3 + 4 + 1 + 2 + 3 + 4 + 1 + 2 + 3 + 4 + 
G|---------------|---------------|---------------|---------------|
D|---------------|---------------|---------------|---------------|
A|---------------|---------------|---------------|---------------|
E|--------4-5-6-7|---------------|5-5-3---2------|--------4-5-6-7|

  1 + 2 + 3 + 4 + 1 + 2 + 3 + 4 +         
G|---------------|---------------| there is a bunch of slapping in these
D|---------------|---------------| breaks, make it up yourself!
A|---------------|---------------| X3 then   
E|---------------|--------4-5-6-7|       

  1 + 2 + 3 + 4 + 1 + 2 + 3 + 4 + 1 + 2 + 3 + 4 + 1 + 2 + 3 + 4 + 
G|---------------|---------------|---------------|--2------------|
D|---------------|---------------|---------------/4--/2-0-2-0----|
A|---------------|--------------2|--2-0-2-------2|-----------2---|
E|---------------|3-3-2----------|---------------|------------0-2|
this fill is very wrong, figure it out and let me know...

[Chorus/Outro]
  1 + 2 + 3 + 4 + 1 + 2 + 3 + 4 + 1 + 2 + 3 + 4 + 1 + 2 + 3 + 4 + 
G|---------------|---------------|---------------|---------------|
D|---------------|---------------|---------------|---------------|
A|---------------|--------0-0----|---------------|--------0-0----|
E|0-0---2-3-3-3--|---------------|0-0---2-3-3-3--|---------------|

  1 + 2 + 3 + 4 + 1 + 2 + 3 + 4 + 1 + 2 + 3 + 4 +  
G|---------------|---------------|---------------|
D|---------------|---------------|---------------|
A|--------------2|--2-0-2-------2|--2-0-2--------|
E|3-3-2----------|---------------|-----------/3-2|

  1 + 2 + 3 + 4 + 1 + 2 + 3 + 4 + 1 + 2 + 3 + 4 + 1 + 2 + 3 + 4 + 
G|---------------|---------------|---------------|---------------|
D|---------------|---------------|---------------|---------------|
A|---------------|--------0-0----|---------------|--------0-0----|
E|0-0---2-3-3-3--|-------------32|0-0---2-3-3-3--|---------------|

  1 + 2 + 3 + 4 + 1 + 2 + 3 + 4 + 1 + 2 + 3 + 4 +  
G|---------------|---------------|---------------|
D|---------------|---------------|------------0h2|
A|--------------2|--2-0-2-------2|--2-0-2---2----|
E|3-3-2----------|---------------|---------------|

  1 + 2 + 3 + 4 + 1 + 2 + 3 + 4 + 1 + 2 + 3 + 4 + 1 + 2 + 3 + 4 + 
G|---------------|---------------|---------------|---------------|
D|---------------|---------------|---------------|---------------|
A|---------------|--------0-0----|---------------|--------0-0----|
E|0-0---2-3-3-3--|---------------|0-0---2-3-3-3--|---------------|

  1 + 2 + 3 + 4 + 1 + 2 + 3 + 4 + 1  +  2  +  3  +  4  +  
G|---------------|---------------|-----------------------|
D|---------------|---------------|-----------------------|
A|--------------2|--2-0-2-------2|---2--0--2-------------|
E|3-3-2----------|---------------|------------33-3--33-2-|


************************************

| /  Slide up
| h  Hammer-on

************************************
Suggest correction
comments
print report bad tab
1 comment total.
0 reply
InfinitiMusic11 46 Sep 30, 2014 06:56 PM

Great tab!

guest
You may want to rate the tab now too:
select rating
Wanna post a correction for this tab? Suggest correction