Oops, an error
Loading. Please wait.

Smooth Criminal tab

version 1
version 1
138,254 views 87 this week
10 commentsread comments
1 2 3 4 5
x 14
add to favorites
×
Save as Personal and add changes to this tab that will be seen only by you. Learn more ›
×
You can save this tab as Personal to edit and correct it or add notes. All changes will be seen only by you. Learn more »
launch autoscroll
font size
0
reset
how to read this tab
guitar tuner
backing track
0:00
0:00
edit
Autoscroll
slow
fast
+/-
esc
set tempo
stop
Author
Unregistered
This song is easy to play, but is quite fast in places. Another Brilliant Song By 
Michael Jackson

Normal Tuning

MAIN BASS RIFF:
G|-----------------------------------------|
D|-----------------------------------------|
A|----0-0-0-0-0-2-2---0-2-3-3---2-3-2----0-|
E|------------------------------------3----|

[Verse]
Am G/B C G/B G [x4]
As he came...

[Chorus]
F G [hold each one for a long time]
Annie, are you ok?

F Esus4 E (Am)
You've been hit by...

Keep Practising  uk now u can do it

            
            
Suggest correction
Creating personal tab
Creating personal tab
You can edit any tab online and save it as your Personal.

You can edit, replace or remove any tab part or add personal notes – all changes will be seen only by you.

Personal tabs can be accessed anytime from any device, even offline.
Learn more »
comments
print report bad tab
10 comments total. Showing first comments.
-1 reply
Sporty8092 10 Dec 21, 2002 07:00 PM

Intro
G:--------------------------------------
D:--------------------------------------
A:--------------------------------------
E:---5--5-5-5-3-5-7-7-5-7-8-8--8-8-8-7-3-5

0 reply
eccofuture 10 Jan 11, 2003 07:00 PM

this is the bass riff'
-------------------------------------
--------------------------------------
0-0-0-0-0-2-2---0-2-3-3---2-3-2----0-
-------3-------------------------3----

+1 reply
JoeBoy779 10 Oct 07, 2004 08:00 PM

Hee Hee! OW! SHAMONE!

guest
Wanna post a correction for this tab? Suggest correction