Oops, an error
Loading. Please wait.

The Girl Is Mine bass

310 views 6 this week
no commentswrite comment
1 2 3 4 5
3 more votes to show rating
add to favorites
×
Save as Personal and add changes to this tab that will be seen only by you. Learn more ›
×
You can save this tab as Personal to edit and correct it or add notes. All changes will be seen only by you. Learn more »
launch autoscroll
font size
0
reset
guitar tuner
edit
Autoscroll
slow
fast
+/-
esc
set tempo
stop
Author
Difficulty
Intro :
G|---------------------------------|---------------------------------|
D|---------------------------------|---------------------------------|
A|---------------------------------|---------------------------------|
E|5-------------0---0-2---0---2----|5-------------0---0-2---0---2----|

G|---------------------------------|---------------------------------|
D|---------------------------------|------------------2-4------------|
A|---------------------------------|------------------------2---0----|
E|5-------------0---0-2---0---2----|5-------------0------------------|

Verse 1 : (Michael)
G|---------------------------------|---------------------------------|
D|---------------------------------|---------------------------------|
A|---------------------------------|---------------------------------|
E|5-------------0---0-2---0---2----|5-------------0---0-2---0---2----|

G|---------------------------------|---------------------------------|
D|---------------------------------|---------------------------------|
A|---------------------------------|------------------------------/--|
E|5-------------0---0-2---0---2----|5-----------3-0-2----------------|

Chorus :
G|---------------------------------|---------------------------------|
D|---------------------------------|---------------------------------|
A|2-------------0-2-----2-4---5----|7--------------------------------|
E|---------------------------------|----------------0----------------|

G|---------------------------------|---------------------------------|
D|------------------2-4------------|---------------------------------|
A|---------------------------------|------------------------------/--|
E|5-------------0---------0---2----|5-----------3-0-2----------------|

G|---------------------------------|---------------------------------|
D|---------------------------------|---------------------------------|
A|2-------------0-2-----2-4---5----|7--------------------------------|
E|---------------------------------|----------------0----------------|

Interlude :
G|---------------------------------|---------------------------------|
D|---------------------------------|---------------------------------|
A|---------------------------------|------------------------2---0----|
E|5-------------0---0-2---0---2----|5-------------0---0-2------------|

Verse 2 : (Paul)
G|---------------------------------|---------------------------------|
D|---------------------------------|---------------------------------|
A|---------------------------------|---------------------------------|
E|5-------------0---0-2---0---2----|5-------------0---0-2---0---2----|

G|---------------------------------|---------------------------------|
D|------------------2-4------------|---------------------------------|
A|---------------------------------|------------------------------/--|
E|5-------------0---------0---2----|5-----------3-0-2----------------|

Chorus :
G|---------------------------------|---------------------------------|
D|---------------------------------|---------------------------------|
A|2-------------0-2-----2-4---5----|7--------------------------------|
E|---------------------------------|----------------0----------------|

G|---------------------------------|---------------------------------|
D|---------------------------------|---------------------------------|
A|---------------------------------|------------------------------/--|
E|5-------------0---0-2---0---2----|5-----------3-0-2----------------|

G|---------------------------------|---------------------------------|
D|---------------------------------|---------------------------------|
A|2-------------0-2-----4-----5----|7--------------------------------|
E|---------------------------------|----------------0----------------|

Interlude :
G|---------------------------------|---------------------------------|
D|------------------2-4------------|------------------/-4---2--------|
A|---------------------------------|----------------------------4----|
E|5-------------0---------0---2----|5---------------0----------------|

Bridge :
G|------------9--------------------|---------------------------------|
D|--------------7----7-------------|----------------------2-4--------|
A|--------------------7----------5-|7-----------7---7----------------|
E|5-----------------------5--------|-----------7---7------------7-\--|

G|---------------------------------|---------------------------------|
D|--------------7----7-------------|---------------------------------|
A|------------7-------7----------5-|7-----------7---------7-9---\----|
E|5-----------------------5--------|-----------7----0-0--------------|

G|---------------------------------|---------------------------------|
D|---------------------------------|--------------3------------------|
A|3-------------0-3---3-3----------|------------3-----0-3------------|
E|------------3------------/3------|1----------------------1---------|

G|---------------------------------|---------------------------------|
D|---------------------------------|---------------------------------|
A|7------------7----/-4---5---6----|7------------7----/-4---5---6----|
E|---------------0-----------------|---------------0-----------------|

G|---------------------------------|---------------------------------|
D|---------------------------------|---------------------------------|
A|7------------7----/-4---5---6----|---------------------------------|
E|---------------0-----------------|----0---0---0---0---0---0---0----|

Verse 3 : (Paul)
G|---------------------------------|---------------------------------|
D|------------------2-4---2---4----|------------------2-4---2---4----|
A|---------------------------------|---------------------------------|
E|5-------------0------------------|5-------------0------------------|

(Michael)
G|---------------------------------|---------------------------------|
D|------------------2-4---2---4----|---------------------------------|
A|---------------------------------|------------------------------/--|
E|5-------------0------------------|5-----------3---2----------------|

Chorus :
G|---------------------------------|---------------------------------|
D|---------------------------------|---------------------------------|
A|2-------------0-2-----2-4---5----|7--------------------------------|
E|---------------------------------|----------------0----------------|

G|---------------------------------|---------------------------------|
D|------------------2-4---2---4----|---------------------------------|
A|---------------------------------|------------------------------/--|
E|5-------------0------------------|5-----------3---2----------------|

G|---------------------------------|---------------------------------|
D|---------------------------------|---------------------------------|
A|2-------------0-2-----4-----5----|7---------------7----------------|
E|---------------------------------|---------------------------------|

G|---------------------------------|---------------------------------|
D|------------------2-4---2---4----|------------------2-4---2---4----|
A|---------------------------------|---------------------------------|
E|5-------------0------------------|5-------------0------------------|

G|---------------------------------|---------------------------------|
D|------------------2-4---2---4----|------------------2-4---2---4----|
A|---------------------------------|---------------------------------|
E|5-------------0------------------|5-------------0------------------|

G|---------------------------------|---------------------------------|
D|------------------2-4---2---4----|------------------2-4---2---4----|
A|---------------------------------|---------------------------------|
E|5-------------0------------------|5-------------0------------------|

G|---------------------------------|---------------------------------|
D|------------------2-4---2---4----|---------------------------------|
A|---------------------------------|---------------------------------|
E|5-------------0------------------|5-------------3---2--------------|

G|---------------------------------|---------------------------------|
D|---------------------------------|---------------------------------|
A|2-------------0-2-----2-4---5----|7--------------------------------|
E|---------------------------------|----------------0----------------|

G|---------------------------------|---------------------------------|
D|------------------2-4---2---4----|---------------------------------|
A|---------------------------------|---------------------------------|
E|5-------------0------------------|5-----------3---2----------------|

[Outro](repeat)
G|---------------------------------|---------------------------------|
D|------------------4-6---4---6----|------------------4-6---4---6----|
A|2--------------------------------|2--------------------------------|
E|--------------2------------------|--------------2------------------|

************************************

| /  Slide up
| \  Slide down

************************************
Suggest correction
Creating personal tab
Creating personal tab
You can edit any tab online and save it as your Personal.

You can edit, replace or remove any tab part or add personal notes – all changes will be seen only by you.

Personal tabs can be accessed anytime from any device, even offline.
Learn more »
Give kudos to tab author, rate the tab!
1 2 3 4 5
comments
print report bad tab
guest
You may want to rate the tab now too:
select rating
Wanna post a correction for this tab? Suggest correction