Oops, an error
Loading. Please wait.

They Dont Care About Us tab

version 1
version 1

Whole song

Interactive

Video

40,525 views 78 this week
5 commentsread comments
1 2 3 4 5
x 9
add to favorites
×
Save as Personal and add changes to this tab that will be seen only by you. Learn more ›
×
You can save this tab as Personal to edit and correct it or add notes. All changes will be seen only by you. Learn more »
launch autoscroll
font size
0
reset
how to read this tab
guitar tuner
edit
Autoscroll
slow
fast
+/-
esc
set tempo
stop
Author
Difficulty
THEY DON'T CARE ABOUT US - Michael Jackson

Tuning:
This is the song's whole guitar part. 
Throughout most of the song, there's 
a beat (created by synth/percussion 
I guess), but near the tail-end of 
the song, a fairly simple, yet cool 
and effective, guitar section is 
placed. 

Guitar 1
e|---------------------------------------------------------| Repeat 10x
B|---------------------------------------------------------|
G|------------------9h10-7-5h7--9h10-7-5-------------------|
D|---------------------------------------------------------|
A|---------------------------------------------------------|
E|---------------------------------------------------------|

Guitar 2
e|------------------------------------------------| Repeat 9x
B|------------------------------------------------|
G|-----------------0-2----------------------------|
D|------0-3-0-5-0-------0-3-0-5-0-----------------|
A|---------------------------------3h5------------|
E|------------------------------------------------|

Later...

Both Guitars
e|--------------------------------------------| Repeat 9x
B|--------------------------------------------|
G|--------------------------------------------|
D|-------------------7-7-5--7-7-5-------------|
A|-------------------5-5-3--5-5-3-------------|
E|--------------------------------------------|

************************************

| h  Hammer-on

************************************

            
            
Suggest correction
Creating personal tab
Creating personal tab
You can edit any tab online and save it as your Personal.

You can edit, replace or remove any tab part or add personal notes – all changes will be seen only by you.

Personal tabs can be accessed anytime from any device, even offline.
Learn more »
comments
print report bad tab
5 comments total. Showing first comments.
-1 reply
Marcusaurus 94 Nov 05, 2009 07:05 PM

HHmmmmmm Thanks It's a great attempt but i don't think it all right....good job though 4*

-1 reply
Tariso 253 Nov 02, 2010 03:04 AM

First part should be:

e|---------------------------------------------------------| 
B|---------------------------------------------------------|
G|------------------9h10-7-5h7--9h10-7-5-------------------|
D|---------------------------------------------------------|
A|---------------------------------------------------------|
E|---------------------------------------------------------|

That's hammer-ons, not pull-offss!

The second part was almost correct:
e|------------------------------------------------| 
B|------------------------------------------------|
G|-----------------0-2----------------------------|
D|------0-3-0-5-0-------0-3-0-2-0-----------------|
A|---------------------------------3-5------------|
E|------------------------------------------------|

Made a few corrections here

Third part i played one step lower:
e|--------------------------------------------| 
B|--------------------------------------------|
G|--------------------------------------------|
D|-------------------7-7-5--7-7-5-------------|
A|-------------------5-5-3--5-5-3-------------|
E|--------------------------------------------|


Nice try, but you gotta listen better to the song when you tab it ;)

0 reply
nincompoop 101 Apr 28, 2011 06:34 PM

You're right... when I tabbed this I was just beginning at guitar, but I actually did know about that last part a step lower, I was kicking myself after I had submitted it. lol

guest
You may want to rate the tab now too:
select rating
Wanna post a correction for this tab? Suggest correction