Oops, an error
Loading. Please wait.

Thriller Bass Tab

version 2
version 2

Whole song

Interactive

22,405 views 57 this week
no commentswrite comment
1 2 3 4 5
accurate
x 6
add to favorites
launch autoscroll
font size
0
reset
guitar tuner
Autoscroll
slow
fast
+/-
esc
set tempo
stop
Help us to improve Ultimate-Guitar.com Take our survey!
×
Author
Intro
G-------------------------|
D-------2----2--4---------|
A----4-------------4------|
E-------------------------|


Verse & Chorus
G|--------------------------|
D|.----------2--4----------.|
A|.--4-2--4--------4-------.| Repeat as necessary
E|--------------------------|


Chorus End
G-------------------------|
D-------------4-----------|
A--4-2--0-----------2-----|
E-------------------------|


Lick Before 2nd Chorus Only
G--------------------------------------------|
D----------2--4---------------------2--4-----|
A--4-2--4-----------------4-2-2--4--------4--|
E--------------0-0--2--4---------------------|


Bridge
G---------------------------------------------------------------------------|
D--------------2--4------2-4----2-4----4------------------------------------|
A--4--4-2-------------------------------------0----0-0--------0----0--2--4--|
E---------4--------------------------------0--------------3-0---------------|

G-------------------------------------------13s0----------------------------|
D----------2----------------------------------------------6-----------------|
A--4-2--4-----4--2----2-2----4-2-1----1-1----------------------6------------|
E----------------------------------------------------------------4----4-4---|

G----------------|
D-------2-4-2----|
A-------------4--|
E--4-4-----------|


Extended Chorus End
G-------------------------------------------|
D-------------4---------1----0--------------|
A--4-4-2-0---------2--------------2----2-2--|
E-------------------------------------------|

End Notes
   Repeat as Necessary
G-|-------------|----------------|
D-|.-----------.|----------------|
A-|.---4---4---.|----------2--4--|
E-|-------------|--------4-------|


Intro
Verse
Chorus
Chorus End
Verse
Lick before 2nd Chorus
Chorus
Chorus End
Bridge
Verse
Chorus
Extended Chorus End
Chorus
Chorus End
End Notes
Suggest correction
comments
print report bad tab
guest
You may want to rate the tab now too:
select rating
Please do not post tabs as comments. Select "correction" instead!