Oops, an error
Loading. Please wait.

You Rock My World Bass Tab

version 2
version 2

Whole song

Interactive

5,167 views 18 this week
no commentswrite comment
1 2 3 4 5
accurate
x 4
add to favorites
launch autoscroll
font size
0
reset
guitar tuner
Autoscroll
slow
fast
+/-
esc
set tempo
stop
Help us to improve Ultimate-Guitar.com Take our survey!
×
Author
Tuning
D A D G B E
This is the bass line of the song.

G|------------------------|
D|------------------------|
A|-3-2-0---0--------------|
D|----------------0-2--2--|

Bridge:

G|----------------------------------------------|
D|----------------------------------------------|
A|-3-3---0--5--7-7---7--2--3-3---0--5--7-7---8--|
D|----------------------------------------------|

G|-----------------------------------------------|
D|-----------------------------------------------|
A|2-3-3---0--5--7-7---7--2--3-3--3--3--5-5-5-5-5-|
D|-----------------------------------------------|

Listen the song with attention for the time, specially in the bridge.
Isn't a difficult song. Remember the Drop D.

Tabbed by Juan Martín Fozzatti.
Suggest correction
comments
print report bad tab
guest
You may want to rate the tab now too:
select rating
Please do not post tabs as comments. Select "correction" instead!