Oops, an error
Loading. Please wait.

Band Of Brothers Theme Tab

version 2
version 2

Whole song

Interactive

3,528 views 12 this week
no commentswrite comment
1 2 3 4 5
x 4
add to favorites
launch autoscroll
font size
0
reset
how to read this tab
guitar tuner
Autoscroll
slow
fast
+/-
esc
set tempo
stop
Help us to improve Ultimate-Guitar.com Take our survey!
×
Author
-------------------------------------------------------------
          Band of Brother Theme by Michael Kamen
-------------------------------------------------------------

Hi all! This is my first tab :), so I hope you all like it. I tabbed it off
nadziranim's beautiful version of the song on youtube (URL below) as well as
the original music from the show. Enjoy!

http://www.youtube.com/watch?v=thDB_Jc36sc

E|-----------------------------------------------------------|
B|------------------------------------------0--0-------------|
G|--0--0--0--0----0--0--0--0----0--------2-----0------0------|
D|--0-----0---0---0-----0---0---0-----0--0----------0-0---0--|
A|-------------2-------------2-----2--------------2-----2----|
E|--3-----3-------3-----3-------3--------------3-------------|

-------------------------------------------------------------|
----------------0--0-----0-----------------0--0--------------|
----0--------2-----0-----0-----0--------2-----0------0-------|
----0-----0--0--------0-----0--0-----0--0----------0-0---0---|
-------2--------------------------2--------------2-----2-----|
----3--------------3-----------3--------------3--------------|

-----------------------------------0-------------------------|
----------------0--1-------0----------3-----0--0--0-0-1--3---|
----0--------2-----0-------0-------------2-----0-------------|
----0-----0--0----------2-------0--0-------------------------|
-------2-----------3--3-------2-----------------------0--2---|
----3----------------------3-------------------3-------------|

--------------------------------------------------------------|
--------3--3-------3--1--0--0--------------0-----0--1--2----2-|
------0------------------------2--0--0-----0--2---------------|
----0-----------0-----------0--0--0--0--------0---------------|
-----------2--2----3--3--3--------------2--------------3--3---|
-------------------------------------3------------------------|

-------------------------------------------------------------|
----5----5--7----7--8------------------0---------------------|
---------------------------------0-----0--2--0--0------0-----|
---------------------------------0--------0--0--0----0-0---0-|
----3--3----5--5----7---------------2--------------2-----0---|
---------------------------------3--------------3------------|


-------------------------------------------------------------|
----------------0--0------0--------------------0--0----------|
----0--------2-----0------0-0------0--------2-----0------0-0-|
----0-----0--0----------0-----0----0-----0--0----------0-0---|
-------2--------------2---------2-----2--------------2-------|
----3--------------3---------------3--------------3----------|

-------------------------------------------------------------|
---------------------0--0---------------------------0--1-----|
---------0--------2-----0------0-0---0--0--------2-----0-----|
----0----0-----0--0----------0-0---0----0-----0--0-----------|
------2-----2--------------2---------------2-----------3--3--|
---------3--------------3---------------3--------------------|

----------------0--------------------------------------------|
-------0-----------3-----0--0--0--0--1--3------3--3-------3--|
-------0--------------2-----0--0--0-----0----0---------------|
----2--------0--0--------------------------0-----------0-----|
----------2--------------------------0--2---------2--2----3--|
-------3--------------------3--3-----------------------------|

-------------------------------------------------------------|
----1--0--0--------------0-----0--1--3----3--5----5--7----7--|
-------------2--0--0-----0--2--------------------------------|
----------0--0--0--0--------0--------------------------------|
----3--3--------------2--------------2--2----3--3----5--5----|
-------------------3-----------------------------------------|

---------7----12p0-------------------------------------------|
----8--------------------------------0-----------------------|
-------------------------0-----0--2-----0------0------0------|
-------------------------0--------0-----0----0-0---0--0------|
----7-----------------------2--------------2-----2-------2---|
-------------------------3--------------3-------------3------|


----------------------|
----------0-----------|
----0--2-----0--------|
-------0-----0--------|
----------------------|
-------------3--------|
Suggest correction
comments
print report bad tab
guest
You may want to rate the tab now too:
select rating
Wanna post a correction for this tab? Suggest correction