Oops, an error
Loading. Please wait.

Home Again Tab

version 2
version 2

Whole song

Interactive

3,414 views 63 this week
no commentswrite comment
1 2 3 4 5
excellent!
x 3
add to favorites
launch autoscroll
font size
0
reset
how to read this tab
guitar tuner
Tab Pro tools
  • play this tab
  • loop segment
  • change instrument
  • show fretboard
  • metronome
×
Best way to learn
"Home Again"
Autoscroll
slow
fast
+/-
esc
set tempo
stop
Difficulty
novice
« Home again » Michael Kiwanuka


INTRO
e|-----------------------|-----------------------|
B|----3----3-----3-----3-|---3-----3-----3-----3-|
G|--4-----4-----4-----4--|--4-----4-----4-----4--|
D|-5-----5-----5-----5---|-5-----5-----5-----5---|
A|-----------------------|-----------------------|
E|-----------------------|-----------------------|

VERSE  Home again.. 
e|-----------------------|-----------------------|-----------------------|
B|---3-----3-------------|---3-----3-------------|-----------------------|
G|--4-----4------0-----0-|--4-----4------0-----0-|---2-----2-----2-----2-|
D|-5-----5------4-----4--|-5-----5------4-----4--|--1-----1-----1-----1--|
A|-------------5-----5---|-------------5-----5---|-2-----2-----2-----2---|
E|-----------------------|-----------------------|-----------------------|

e|-----------------------|-----------------------|-----------------------|
B|---0-----0-----0-----0-|---3-----3-------------|---3-----3-------------|
G|-----------------------|--4-----4------0-----0-|--4-----4------0----0--|
D|--2-----2-----2-----2--|-5-----5------4-----4--|-5-----5------4----4---|
A|-----------------------|-------------5-----5---|-------------5----5----|
E|-0-----0-----0-----0---|-----------------------|-----------------------|

e|-----------------------|-----------------------|-----------------------|
B|-----------------------|---0-----0-----0-----0-|---1-----0-----1-----1-|
G|---2-----2-----2-----2-|-----------------------|--2-----2-----2-----2--|
D|--1-----1-----1-----1--|--2-----2-----2-----2--|-----------------------|
A|-2-----2-----2-----2---|-----------------------|-0-----0-----0-----0---|
E|-----------------------|-0-----0-----0-----0---|-----------------------|

e|---0-----2-----0-----0-|-----------------------|-----------------------|
B|--3-----3-----3-----3--|---3-----3-----3-----3-|---1-----1-----1-----1-|
G|-----------------------|-----------------------|-----------------------|
D|-0-----0-----0-----0---|--0-----0-----0-----0--|--2-----0-----2-----0--|
A|-----------------------|-2-----2-----2-----2---|-3-----3-----3-----3---|
E|-----------------------|-----------------------|-----------------------|

e|-----------------------|-----------------------|-----------------------|
B|---3-----3-----3-----3-|---1-----0-----1-------|-3-----5----/7---------|
G|-----------------------|--2-----2-----2--------|-----------------------|
D|--0-----0-----0-----0--|-----------------------|-4-----5----/7---------|
A|-2-----2-----2-----2---|-0-----0-----0---------|-----------------------|
E|-----------------------|-----------------------|-----------------------|

e|-----------------------|-----------------------|-----------------------|
B|-3-----5-----3---------|---3-----3-----3----3--|---1-----1-----1-------|
G|-----------------------|-----------------------|--2-----2-----2--------|
D|-4-----5-----4---------|--0-----0-----0----0---|-----------------------|
A|-----------------------|-----------------------|-0-----0-----0---------|
E|-----------------------|-3-----3----3-----3----|-----------------------|

                                        |-----------------------| 
                                        |-3-----5-----3---------| REPEAT
                             1st TIME : |-----------------------| FROM
e|-----------------------|              |-4-----5-----4---------| INTRO
B|-/3----5----/7---------|              |-----------------------| <=
G|-----------------------|              |-----------------------| 
D|-/4----5----/7---------|
A|-----------------------|              |-----------------------|
E|-----------------------|              |---4-----4-----4-----4-|
                             2nd TIME : |--0-----0-----0-----0--| =>
                                        |-----------------------|
                                        |-3-----3-----3-----3---|
                                        |-----------------------|

e|-----------------------|-----------------------|-----------------------|
B|---3-----3-----3-----3-|---4-----4-----4-----4-|---3-----3-----3-----3-|
G|--0-----0-----0-----0--|--0-----0-----0-----0--|--0-----0-----0-----0--|
D|-----------------------|-----------------------|-----------------------|
A|-----------------------|-3-----3-----3-----3---|-----------------------|
E|-3-----3-----3-----3---|-----------------------|-3-----3-----3-----3---|

e|-----------------------|-----------------------|-----------------------|
B|-7-----8-----7---------|-7-----8---------------|-----------------------|
G|-----------------------|-----------------5/7/5-|-4--5------5/7/5-----4-|
D|-7-----7-----7---------|-7-----7---------------|-------0-----------0---|
A|-----------------------|-------------0---------|-----------------------|
E|-----------------------|-----------------------|---- -> SLOW DOWN -> --|

VERSE
e|-----------------------|-----------------------|-----------------------|
B|---3-----3-------------|---3-----3-------------|-----------------------|
G|--4-----4------0-----0-|--4-----4------0-----0-|---2-----2-----2-----2-|
D|-5-----5------4-----4--|-5-----5------4-----4--|--1-----1-----1-----1--|
A|-------------5-----5---|-------------5-----5---|-2-----2-----2-----2---|
E|-----------------------|-----------------------|-----------------------|

e|-----------------------|-----------------------|-----------------------|
B|---0-----0-----0-----0-|---3-----3-------------|---3-----3-------------|
G|-----------------------|--4-----4------0-----0-|--4-----4------0----0--|
D|--2-----2-----2-----2--|-5-----5------4-----4--|-5-----5------4----4---|
A|-----------------------|-------------5-----5---|-------------5----5----|
E|-0-----0-----0-----0---|-----------------------|-----------------------|

e|-----------------------|-----------------------|-----------------------|
B|-----------------------|---0-----0-----0-----0-|---1-----0-----1-----1-|
G|---2-----2-----2-----2-|-----------------------|--2-----2-----2-----2--|
D|--1-----1-----1-----1--|--2-----2-----2-----2--|-----------------------|
A|-2-----2-----2-----2---|-----------------------|-0-----0-----0-----0---|
E|-----------------------|-0-----0-----0-----0---|-----------------------|

e|---0-----2-----0-----0-|-----------------------|-----------------------|
B|--3-----3-----3-----3--|---3-----3-----3-----3-|---1-----1-----1-----1-|
G|-----------------------|-----------------------|-----------------------|
D|-0-----0-----0-----0---|--0-----0-----0-----0--|--2-----0-----2-----0--|
A|-----------------------|-2-----2-----2-----2---|-3-----3-----3-----3---|
E|-----------------------|-----------------------|-----------------------|

e|-----------------------|-----------------------|-----------------------|
B|---3-----3-----3-----3-|---1-----0-----1-------|-3-----5----/7---------|
G|-----------------------|--2-----2-----2--------|-----------------------|
D|--0-----0-----0-----0--|-----------------------|-4-----5----/7---------|
A|-2-----2-----2-----2---|-0-----0-----0---------|-----------------------|
E|-----------------------|-----------------------|-----------------------|

e|-----------------------|-----------------------|-----------------------|
B|-3-----5-----3---------|---3-----3-----3----3--|---1-----1-----1-------|
G|-----------------------|-----------------------|--2-----2-----2--------|
D|-4-----5-----4---------|--0-----0-----0----0---|-----------------------|
A|-----------------------|-----------------------|-0-----0-----0---------|
E|-----------------------|-3-----3----3-----3----|-----------------------|

e|-----------------------|-----------------------|-----------------------|
B|-3-----5----/7---------|-3-----5-----3---------|---3-----3-----3-----3-|
G|-----------------------|-----------------------|--4-----4-----4-----4--|
D|-4-----5----/7---------|-4-----5-----4---------|-5-----5-----5-----5---|
A|-----------------------|-----------------------|-----------------------|
E|-----------------------|-----------------------|-----------------------|

e|-----------------------|
B|----3----3-------------|
G|--4-----4--------------|
D|-5-----5---------------|
A|-----------------------|
E|-----------------------|
comments
We did not receive enough feedback on this tab! Please rate:
print report bad tab
1 2 3 4 5
I want to post or [tab]
guest
You may want to rate the tab now too:
select rating
Please do not post tabs as comments. Select "correction" instead!