Oops, an error
Loading. Please wait.

Halo Tab

540 views 1 this week
no commentswrite comment
1 2 3 4 5
3 more votes to show rating
add to favorites
launch autoscroll
font size
0
reset
how to read this tab
guitar tuner
Autoscroll
slow
fast
+/-
esc
set tempo
stop
Help us to improve Ultimate-Guitar.com Take our survey!
×
Title: Halo
Artist: Michael Knott
Album: Life of David
Comments: 1st revision

http://www.michaelknott.com/  from USA

Transcribed by linum
(I declare that the file is all my own work)



		(begining cords)
E  +--------------------------------------------------------+
B  |--------0---------------0-------------------------------|
G  |--0--0-----0--0---0--0-----0--0-------------------------|
D  |-2--2--2--2--2-2-2--2--2--2--2-2------------------------|
A  |3--3--3--3--3---3--3--3--3--3---------------------------|
E  +--------------------------------------------------------+



		
E  +--------------------------------------------------------+
B  |---------0----------------0----------------0------------|
G  |--0---0---0-0------0---0---0-0------0---0---0-0---------|
D  |-2--0--2---2-2-0--2--0--2---2-2-0--2--0--2---2-2-0------|
A  |3--3-------------3--3-------------3--3------------------|
E  +--------------------------------------------------------+

		   She can take me to the place I love...



		(Chorus)
E  +--------------------------------------------------------+
B  |--------0-----------------------------------------------|
G  |--0-0--0---0--------------------------------------------|
D  |0--0--0---0-0-------------------------------------------|
A  |--------------0-----------------------------------------|
E  +--------------------------------------------------------+

    I hear her soul


E  +--------------------------------------------------------+
B  |----0-00-0---0----0-------------3-33-330----------------|
G  |----0-00-0---0----0-----22-2-20-2-22-220----------------|
D  |----0-00-0--------------22-2-20-0-00-000----------------|
A  |--2------0-3--3-2---2-0-------0-------------------------|
E  +3-------------------------------------------------------+

    Hell no      I don't mind if your halo...


E  +--------------------------------------------------------+
B  |----1-00-0---0----0-------------3-33-330----------------|
G  |----0-00-0---0----0-----22-2-20-2-22-220----------------|
D  |----0-00-0--------------22-2-20-0-00-000----------------|
A  |--2------0-3--3-2---2-0-------0-------------------------|
E  +3-------------------------------------------------------+

		 I don't care if you change your mind...



		  (Ending)
E  +------------3-------------------------------------------+
B  |------------3-------------------------------------------|
G  |--0----0----0-------------------------------------------|
D  |-2---0--------------------------------------------------|
A  |3--3----------------------------------------------------|
E  +---------3----------------------------------------------+

    Glow...
Suggest correction
Give kudos to tab author, rate the tab!
1 2 3 4 5
comments
print report bad tab
guest
You may want to rate the tab now too:
select rating
Wanna post a correction for this tab? Suggest correction