Oops, an error
Loading. Please wait.

Im Gonna Be Around Chords

45,937 views 57 this week
no commentswrite comment
1 2 3 4 5
excellent!
x 3
add to favorites
launch autoscroll
font size
0
reset
transpose
0
reset
simplify chords
display chords
guitar tuner
Autoscroll
slow
fast
+/-
esc
set tempo
stop
Help us to improve Ultimate-Guitar.com Take our survey!
×
Michael Learns To Rock
I'M GONNA BE AROUND


[Intro]


G|--------3--------3-----------3-----------3------------------------1--0-------|
B|-----1-----1--------1-----1-----1-----1-----1---------1--0-----1-------------|
C|-----------------------------------------------------------------------------|
D|-----------------------------------------------------------------------------|
A|-----------------------------------------------------------------------------|
E|-----------------------------------------------------------------------------|


G|-----------------------------------------------------------------------------|
B|-----------------------------------------------------------------------------|
C|--------------0--------------------0---------------0--------2----------------|
D|-----------------------------------------------------------------------------|
A|---3-------------------3----------------------2h3----------------------------|
E|-----------------------------------------------------------------------------|
    Fmaj7                  G   C

G|-----------------------------------------------------------------------------|
B|----1--------------------3---1-----------------------------------------------|
C|----2----\5--5--4--2--4--4---0-----------------------------------------------|
D|----3--------------------5---------------------------------------------------|
A|-----------------------------------------------------------------------------|
E|-----------------------------------------------------------------------------|


[Verse 1]

It's been so long since we took the time                C - F - G - C
To share words                                  Am-F
>From deep inside us                            G
We're in our own world spinning our wheels              C - F - Em - Am
But you know how I feel                         F - G - C

Well since the first time I took your hand              C - F - G - C
My love for you                                 Am - F
Has just been growing                           G
You always seem to understand                   C-F-Em-Am
You know how I Am                               F-G


[Chorus]

I'm gonna love you 'til the end                 C - F - G - C
I'm gonna be                                    Am - F
Your very true friend                           G
I wanna share your ups and downs                        C-F-G-Am
I'm gonna be around                             F-G-C


[Verse 2]

When you're alone 'cos I'm away                 C - F - G - C
Don't be sad                                    Am - F
Don't be afraid                                 G
I'm gonna turn my thoughts to you                       C - F - Em - Am
Like I always do                                        F - G


[Chorus]

I'm gonna love you 'til the end                 C - F - G - C
I'm gonna be                                    Am - F
Your very true friend                           G
I'm gonna share your ups and downs              C - F - G - Am
I'm gonna be around                             F-G-C


[Verse 3]

Catch you when you fall                         Bb
Hold you when you're down                       A
Sharing every moment                            F#
I wanna show you all I do                               F - C
I believe I've found a miracle                  Bb - F
In you                                          Bb


[Chorus]

I'm gonna love you 'til the end                 Eb - Ab - Bb - Eb
I'm gonna be                                    Cm - Ab
Your very true friend                           Bb
I'm gonna share your ups and downs              Eb - Ab - Bb - Cm
I'm gonna be around                             Ab - Bb


[Chorus]

I'm gonna love you 'til the end                 F - Bb - C - F
I'm gonna be                                    Dm - Bb
Your very true friend                           C
I'm gonna share your ups and downs              F - Bb - C - Dm
I'm gonna be around                             Bb-C-F



************************************

| h  Hammer-on
| \  Slide down

************************************
Suggest correction
Give kudos to tab author, rate the tab!
1 2 3 4 5
comments
print report bad tab
guest
You may want to rate the tab now too:
select rating
Wanna post a correction for this tab? Suggest correction