Oops, an error
Loading. Please wait.

Laughing Stacks Tab

4,125 views 6 this week
no commentswrite comment
1 2 3 4 5
please rate
add to favorites
launch autoscroll
font size
0
reset
how to read this tab
guitar tuner
Tab Pro tools
  • play this tab
  • loop segment
  • change instrument
  • show fretboard
  • metronome
×
Best way to learn
"Laughing Stacks"
Autoscroll
slow
fast
+/-
esc
set tempo
stop
Contributor
Song: Laughing Stacks
Album: Michael Lee Firkins
Artist: Michael Lee Firkins
Tabbed By: Brian Dumont (Brian0192837465@hotmail.com)

This isn't a complete tab because the song itself is very repetitive, using 
similar riffs and just changing
some licks here and there. If someone actually wants a full version I will gladly 
tab out the rest, just
shoot me an e-mail or comment. PLEASE RATE!

0:00-0:13
---------

  PM                    PM             PM                   PM         
E|------------------------------------|------------------------------------|
B|---------------7-10-------10\8--8\7-|--------------7-10------10---10---9-|
G|---9\7-----7/9------9------9\7--7\6-|---9\7----7/9------9-----9----9---8-|
D|----------------------7-------------|---------------------7--------------|
A|-------5/7--------------------------|------5/7---------------------------|
E|-0----------------------------------|-0----------------------------------|


  PM                  PM  PM           PM       
E|------------------------------------|-----------------12-14-16-19-16-14--|
B|----------------7-10----------------|------------------------------------|
G|-----9\7----7/9------------7\5/7\5/7|---9\7----7-10----------------------|
D|---------------------------7\5/7\5/7|------------------------------------|
A|--------5/7-------------------------|------5/7---------------------------|
E|-0-------------------0---0----------|-0----------------------------------|



E|-19-16-14-16-14-12-12-14-16-19-16-14|-19-16-14-16-14-12------------------|
B|------------------------------------|------------------------------------|
G|------------------------------------|------------------------------------|
D|------------------------------------|------------------------------------|
A|------------------------------------|------------------------------------|
E|------------------------------------|------------------------------------|


0:14-0:22
---------

  PM     PM    PM  PM      PM          PM    PM     PM  PM
E|------------------------------------|------------------------------------|
B|------------------------------------|--------------------5--------10\8/10|
G|--------------------3p0-----3p0-----|-----------------------7------9\7/9-|
D|---------------------------------2--|-------------------------7----------|
A|---7\5---5/7------------------------|---7\5---5/7------------------------|
E|-0-----0-----0---0--------0---------|-0-----0-----0---0------------------|



  PM    PM    PM   PM      PM          PM      PM    PM  PM
E|------------------------------------|------------------------------------|
B|------------------------------------|----------------------------8\7--7\5|
G|--------------------3p0-----3p0-----|--------------------5/7\5/7-----5---|
D|---------------------------------2--|------------------------------------|
A|---7\5---5/7------------------------|----7\5---5/7-----------------------|
E|-0-----0-----0---0--------0---------|-0------0-----0---0-----------------|



0:23-0:42
---------


  PM                    PM             PM                   PM         
E|------------------------------------|------------------------------------|
B|---------------7-10-------10\8--8\7-|--------------7-10------10---10---9-|
G|---9\7-----7/9------9------9\7--7\6-|---9\7----7/9------9-----9----9---8-|
D|----------------------7-------------|---------------------7--------------|
A|-------5/7--------------------------|------5/7---------------------------|
E|-0----------------------------------|-0----------------------------------|



  P.M.                   .            
E|----------------------12--14-14h16p14p12-14-16-17-|
B|----------------7-10------------------------------|
G|----9\7-----7/9-----------------------------------|
D|--------------------------------------------------|
A|-------5/7----------------------------------------|
E|-0------------------------------------------------|



  P.M.                   .            
E|-------------------------------------------------|
B|----------------7-10-------------8-7---7-5-------|
G|----9\7-----7/9------9-----5/7\5-----5-----------|
D|------------------------7------------------------|
A|------5/7----------------------------------------|
E|-0-----------------------------------------------|



  PM                    PM             PM                   PM         
E|------------------------------------|------------------------------------|
B|---------------7-10-------10\8--8\7-|--------------7-10------10---10---9-|
G|---9\7-----7/9------9------9\7--7\6-|---9\7----7/9------9-----9----9---8-|
D|----------------------7-------------|---------------------7--------------|
A|-------5/7--------------------------|------5/7---------------------------|
E|-0----------------------------------|-0----------------------------------|



  P.M.                   P.M.                                                       
E|-----------------------------x--x--13--15/17-15-13|
B|----------------7-10------------------------------|
G|----9\7-----7/9------9----------------------------|
D|------------------------7-------------------------|
A|-------5/7----------------------------------------|
E|-0------------------------------------------------|




  P.M.                                           
E|----------------------6-8-10-12-10-8-12-10-8-6---|
B|----------------7-10-----------------------------|
G|----9\7-----7/9----------------------------------|
D|-------------------------------------------------|
A|-------5/7---------------------------------------|
E|-0-----------------------------------------------|


0:43-1:06
---------



  PM    PM    PM   PM      PM          PM      PM    PM  PM
E|------------------------------------|------------------------------------|
B|------------------------------------|----------------------------8\7--7\5|
G|--------------------3p0-----3p0-----|--------------------5/7\5/7-----5---|
D|---------------------------------2--|------------------------------------|
A|---7\5---5/7------------------------|----7\5---5/7-----------------------|
E|-0-----0-----0---0--------0---------|-0------0-----0---0-----------------|


                                                                                      
E|----17----16----15----14----15----16----17~~------|
B|-14----14----14---/13----13----13----13-----------|
G|--------------------------------------------------|
D|--------------------------------------------------|
A|--------------------------------------------------|
E|--------------------------------------------------|



E|---12---11---10---9---10---11---12~~------------|
B|-9----9----9---/8---8----8----8-----------------|
G|------------------------------------------------|
D|------------------------------------------------|
A|------------------------------------------------|
E|------------------------------------------------|



fb=full bend
E|--12fb--------------------12p11---10~~------------|
B|---------------------8/10-------9-----------------|
G|--------------------------------------------------|
D|--------------------------------------------------|
A|--------------------------------------------------|
E|--------------------------------------------------|


E|----17----16----15----14----15----16----17~~------|
B|-14----14----14---/13----13----13----13-----------|
G|--------------------------------------------------|
D|--------------------------------------------------|
A|--------------------------------------------------|
E|--------------------------------------------------|



E|---12---11---10---9---10---11---12~~------------|
B|-9----9----9---/8---8----8----8-----------------|
G|------------------------------------------------|
D|------------------------------------------------|
A|------------------------------------------------|
E|------------------------------------------------|

                                                     
E|--12fb-------12-----15---12-----17\15-17------12--|
B|--------/10-----12----------12-------------12---12|
G|--------------------------------------------------|
D|--------------------------------------------------|
A|--------------------------------------------------|
E|--------------------------------------------------|

                                             tr=trill
E|-15----17--15-12-17---17-12-19-12----19-12-20tr22|
B|----12-------------12-------------12-------------|
G|-------------------------------------------------|
D|-------------------------------------------------|
A|-------------------------------------------------|
E|-------------------------------------------------|
comments
We did not receive enough feedback on this tab! Please rate:
print report bad tab
1 2 3 4 5
I want to post or [tab]
guest
You may want to rate the tab now too:
select rating
Please do not post tabs as comments. Select "correction" instead!