Oops, an error
Loading. Please wait.

Malaguena Tab

version 1
version 1

Whole song

Interactive

142,987 views 687 this week
3 commentsread comments
1 2 3 4 5
excellent!
x 37
add to favorites
launch autoscroll
font size
0
reset
how to read this tab
guitar tuner
Tab Pro tools
  • play this tab
  • loop segment
  • change instrument
  • show fretboard
  • metronome
×
Best way to learn
"Malaguena"
Autoscroll
slow
fast
+/-
esc
set tempo
stop
Contributor
Malagueña by Michael Lucarelli  

Video: http://www.youtube.com/watch?v=8B6jOUzBKYc
http://www.lucarelli.com


Tabs: Fimmel & Luke

e||-----0-----0-----0--|-----0-----0-----0--|-----0-----0-----0--|
B||-----0-----0-----0--|-----0-----0-----0--|-----1-----1-----1--|
G||-----1-----1-----1--|-----1-----1-----1--|-----2-----2-----2--|
D||--------------------|--------------------|--------------------|
A||--------------2-----|--------------2-----|--0-----3-----2-----|
E||--0-----4-----------|--0-----4-----------|--------------------|

                                                               
e|-----0-----0-----0--|-----0-----0-----0--|-----0-----0-----0--|
B|-----1-----0-----0--|-----0-----0-----0--|-----0-----0-----0--|
G|-----2-----2-----2--|-----1-----1-----1--|-----1-----1-----1--|
D|--------------------|--------------------|--------------------|
A|--0-----------------|--------------2-----|--------------2-----|
E|--------3-----1-----|--0-----4-----------|--0-----4-----------|

                                                              
e|-----0-----0-----0--|-----0-----0-----0--|
B|-----1-----1-----1--|-----1-----1-----1--|
G|-----2-----2-----2--|-----2-----2-----2--|
D|--------------------|--------------------|
A|--0-----3-----2-----|--0-----------------|
E|--------------------|--------3-----1-----|


e|-----0-----0-----0--|-----0-----0-----0--|-----0-----0-----0--|-----0-----0-----0--|
B|-----0-----0-----0--|-----0-----0-----0--|-----1-----1-----1--|-----1-----0-----0--|
G|-----1-----1-----1--|-----1-----1-----1--|-----2-----2-----2--|-----2-----2-----2--|
D|--------------------|--------------------|--------------------|--0-----2-----3-----|
A|--------------2-----|--------------2-----|--0-----2-----3-----|--------------------|
E|--0-----4-----------|--0-----4-----------|--------------------|--------------------|

                                                                 
e|--------0----0----|-----0-----0-----0--|-----0-----0-----0--|---------------------||
B|--------0----0----|--------3-----3-----|--------1-----1-----|---------------------||
G|*-------1----1----|--------4-----4-----|--------2-----2-----|--------------------*||
D|*-----------------|--------------------|--------------------|--------0h2---5p3---*||
A|------------------|--------------------|--0-----------------|--2h3----------------||
E|---0--------------|--0-----------------|--------------------|---------------------||

                                                                             
e|--------0----0----|------0--4-4/-7---|----5---5----8----|-------7-----5-----|
B|--------0----0----|------------------|--------5---------|----------8-----6--|
G|*-------1----1----|----7-------------|--------5---------|-------7-----5-----|
D|*--2--------------|------------------|------------------|-------------------|
A|------------------|------------------|------------------|-------------------|
E|---0--------------|--0---------------|--0---------------|--0----------------|

                                                               
e|-----0-----------0--|-----------------0--|-----------------0--|
B|--------------0-----|-----6--------6-----|-----6--------6-----|
G|-----------7--------|-----------7--------|-----------5--------|
D|--------6-----------|--------6-----------|--------7-----------|
A|--------------------|--------------------|--0-----------------|
E|--0-----------------|--0-----------------|--------------------|

                                                              
e|---------------------|
B|----3---1-----0------|
G|--4-------2-----2---*|
D|--0-----2-----3-----*|
A|---------------------|
E|---------------------|

e|-----0-----0-----0--|-----0-----0-----0--|-----0-----0-----0--|
B|-----0-----0-----0--|-----0-----0-----0--|-----1-----1-----1--|
G|-----1-----1-----1--|-----1-----1-----1--|-----2-----2-----2--|
D|--------------------|--------------------|--------------------|
A|--------------2-----|--------------2-----|--0-----3-----2-----|
E|--0-----4-----------|--0-----4-----------|--------------------|

                                                               
e|-----0-----0-----0--|
B|-----1-----0-----0--|
G|-----2-----2-----2--|
D|--------------------|
A|--0-----------------|
E|--------3-----1-----|

                                                              
e|-----0-----0-----0--|-----0-----0-----0--|-----0-----0-----0--|-----0-----0-----0--|
B|-----0-----0-----0--|-----0-----0-----0--|-----1-----1-----1--|-----1-----1-----1--|
G|-----1-----1-----1--|-----1-----1-----1--|-----2-----2-----2--|-----2-----2-----2--|
D|--------------------|--------------------|--------------------|--------------------|
A|--------------2-----|--------------2-----|--0-----3-----2-----|--0-----------------|
E|--0-----4-----------|--0-----4-----------|--------------------|--------3-----1-----|


e|-----0-----0-----0--|-----0-----0-----0--|-----0-----0-----0--|-----0-----0-----0--|
B|-----0-----0-----0--|-----0-----0-----0--|-----1-----1-----1--|-----1-----0-----0--|
G|-----1-----1-----1--|-----1-----1-----1--|-----2-----2-----2--|-----2-----2-----2--|
D|--------------------|--------------------|--------------------|--0-----2-----3-----|
A|--------------2-----|--------------2-----|--0-----2-----3-----|--------------------|
E|--0-----4-----------|--0-----4-----------|--------------------|--------------------|


e|------------0----|--0----0---------|--1----0---------|-----------------|
B|-----------------|--1---------3----|--1---------1----|--3----3----1----|
G|-----------------|--2--------------|--2--------------|--0--------------|
D|-----------------|-----------------|-----------------|--0--------------|
A|-----------------|--0--------------|--0--------------|-----------------|
E|-----------------|-----------------|-----------------|--3--------------|
 
 
    
e|--0--------------|-----------------|-----------------|-----------------|
B|--0----1----0----|--1----1----0----|--3----1----0----|-----------------|
G|--0--------------|--2--------------|--2--------------|--1----1----2----|
D|-----------------|--3--------------|--3--------------|--2--------------|
A|-----------------|-----------------|-----------------|--2--------------|
E|--3--------------|--1--------------|--1--------------|--0--------------|
 
 
    
e|-----------0----|--5----5----4----|--3----1----0----|--3----3----2----|
B|--0-------------|-----------------|-----------------|-----------------|
G|----------------|-----------------|-----------------|-----------------|
D|----------------|-----------------|-----------------|-----------------|
A|----------------|--0--------------|--0--------------|-----------------|
E|----------------|-----------------|-----------------|--3--------------|
 
 
       
e|--1----0---------|--1----1----0----|-----------------|--0----0---------|
B|------------3----|-----------------|--3----1----3----|------------4----|
G|-----------------|-----------------|-----------------|-----------------|
D|-----------------|-----------------|-----------------|-----------------|
A|-----------------|-----------------|-----------------|-----------------|
E|--3--------------|--1--------------|--1--------------|--0--------------|
 
 
       
e|-----------------|-----------------|-----------------|-----------------|
B|--3----1----0----|--1----1----1----|--1----3----1----|--0----0----0----|
G|-----------------|-----------------|-----------------|-----------------|
D|-----------------|-----------------|-----------------|-----------------|
A|-----------------|--0--------------|--0--------------|-----------------|
E|--0--------------|-----------------|-----------------|--3--------------|
 
 
                                                        v             
               
e|-----------------|-----------------|-----------------|--0------------|
B|--0--------------|-------0----1----|--3----1----3----|--0------------|
G|-------2----0----|--2--------------|-----------------|--1------------|
D|-----------------|-----------------|-----------------|--2------------|
A|-----------------|-----------------|-----------------|--2------------|
E|--3--------------|--1--------------|--1--------------|--0------------|
 



e|----0---0---0--|----0----0---0--|----0---0---0--|----0----0----|
B|----------0----|-----------0----|------1---0----|--------------|
G|------1--------|------1---------|--2------------|--2---0-------|
D|--2------------|--2-------------|---------------|-----------3--|
A|---------------|----------------|---------------|--------------|
E|---------------|----------------|---------------|--------------|


e|----0---0---0--|----0----0---0--|----0---0---0--|----0----0---0|
B|----------0----|-----------0----|------1---0----|--------------|
G|------1--------|------1---------|--2------------|--2---0-------|
D|--2------------|--2-------------|---------------|-----------3--|
A|---------------|----------------|---------------|--------------|
E|---------------|----------------|---------------|--------------|

      T   T   T           T    T       T      T        T    T   T
e|----0---0---0--|----0----0---0--|----0---0---0--|----0----0---0|
B|----------0----|-----------0----|------1---0----|--------------|
G|------1--------|------1---------|--2------------|--2---0-------|
D|--2------------|--2-------------|---------------|-----------3--|
A|---------------|----------------|---------------|--------------|
E|---------------|----------------|---------------|--------------|


      T   T   T       T    T   T       T   T   T      T    T   T
e|----0---0---0--|----0----0---0--|----0---0---0-|----0----0---0-|
B|----------0----|-----------0----|------0---1---|--3---1----3---|
G|---------------|------1---------|--2-----------|---------------|
D|--2---1--------|--2-------------|--------------|---------------|
A|---------------|----------------|--------------|---------------|
E|---------------|----------------|--------------|---------------|

 
e|-----0-----0-----0--|-----0-----0-----0--|-----0-----0-----0--|
B|-----0-----0-----0--|-----0-----0-----0--|-----1-----1-----1--|
G|-----1-----1-----1--|-----1-----1-----1--|-----2-----2-----2--|
D|--------------------|--------------------|--------------------|
A|--------------2-----|--------------2-----|--0-----3-----2-----|
E|--0-----4-----------|--0-----4-----------|--------------------|

                                                               
e|-----0-----0-----0--|
B|-----1-----0-----0--|
G|-----2-----2-----2--|
D|--------------------|
A|--0-----------------|
E|--------3-----1-----|

                                                              
e|-----0-----0-----0--|-----0-----0-----0--|-----0-----0-----0--|-----0-----0-----0--|
B|-----0-----0-----0--|-----0-----0-----0--|-----1-----1-----1--|-----1-----1-----1--|
G|-----1-----1-----1--|-----1-----1-----1--|-----2-----2-----2--|-----2-----2-----2--|
D|--------------------|--------------------|--------------------|--------------------|
A|--------------2-----|--------------2-----|--0-----3-----2-----|--0-----------------|
E|--0-----4-----------|--0-----4-----------|--------------------|--------3-----1-----|


e|-----0-----0-----0--|-----0-----0-----0--|-----0-----0-----0--|-----0-----0-----0--|
B|-----0-----0-----0--|-----0-----0-----0--|-----1-----1-----1--|-----1-----0-----0--|
G|-----1-----1-----1--|-----1-----1-----1--|-----2-----2-----2--|-----2-----2-----2--|
D|--------------------|--------------------|--------------------|--0-----2-----3-----|
A|--------------2-----|--------------2-----|--0-----2-----3-----|--------------------|
E|--0-----4-----------|--0-----4-----------|--------------------|--------------------|



e|-12p0-0---4p0-0---7p0-0-|-12p0-0---4p0-0---7p0-0-|-5p0-0---8p0-0---7p0-0-|-5p0-0---3p0-0---1p0-0-|
B|------------------------|------------------------|-----------------------|-----------------------|
G|------------------------|------------------------|-----------------------|-----------------------|
D|------------------------|------------------------|-----------------------|-----------------------|
A|------------------------|------------------------|-0---------------------|-----------------------|
E|-0----------------------|-0----------------------|-----------------------|-----------------------|


e|-12p0-0---4p0-0---7p0-0-|-12p0-0---4p0-0---7p0-0-|-5p0-0---8p0-0---7p0-0-|-5p0-0---3p0-0---1p0-0-|
B|------------------------|------------------------|-----------------------|-----------------------|
G|------------------------|------------------------|-----------------------|-----------------------|
D|------------------------|------------------------|-----------------------|-----------------------|
A|------------------------|------------------------|-0---------------------|-----------------------|
E|-0----------------------|-0----------------------|-----------------------|-----------------------|



e|-12p0-0---4p0-0---7p0-0-|-12p0-0---4p0-0---7p0-0-|-5p0-0---7p0-0---8p0-0-|-10p0-0--12p0-0--13p0-0-|
B|------------------------|------------------------|-----------------------|------------------------|
G|------------------------|------------------------|-----------------------|------------------------|
D|------------------------|------------------------|-----------------------|------------------------|
A|------------------------|------------------------|-0---------------------|------------------------|
E|-0----------------------|-0----------------------|-----------------------|------------------------|


e|-----0-----0-----0--|-----0-----0-----0--|-----0-----0-----0--|
B|-----0-----0-----0--|-----0-----0-----0--|-----1-----1-----1--|
G|-----1-----1-----1--|-----1-----1-----1--|-----2-----2-----2--|
D|--------------------|--------------------|--------------------|
A|--------------2-----|--------------2-----|--0-----3-----2-----|
E|--0-----4-----------|--0-----4-----------|--------------------|

                                                               
e|-----0-----0-----0--|-----0-----0-----0--|-----0-----0-----0--|
B|-----1-----0-----0--|-----0-----0-----0--|-----0-----0-----0--|
G|-----2-----2-----2--|-----1-----1-----1--|-----1-----1-----1--|
D|--------------------|--------------------|--------------------|
A|--0-----------------|--------------2-----|--------------2-----|
E|--------3-----1-----|--0-----4-----------|--0-----4-----------|

                                                              
e|-----0-----0-----0--|-----0-----0-----0--|
B|-----1-----1-----1--|-----1-----1-----1--|
G|-----2-----2-----2--|-----2-----2-----2--|
D|--------------------|--------------------|
A|--0-----3-----2-----|--0-----------------|
E|--------------------|--------3-----1-----|


e|-----0-----0-----0--|-----0-----0-----0--|-----0-----0-----0--|-----0-----0-----0--|
B|-----0-----0-----0--|-----0-----0-----0--|-----1-----1-----1--|-----1-----0-----0--|
G|-----1-----1-----1--|-----1-----1-----1--|-----2-----2-----2--|-----2-----2-----2--|
D|--------------------|--------------------|--------------------|--0-----2-----3-----|
A|--------------2-----|--------------2-----|--0-----2-----3-----|--------------------|
E|--0-----4-----------|--0-----4-----------|--------------------|--------------------|



e|-12p0-0---4p0-0---7p0-0-|-12p0-0---4p0-0---7p0-0-|-5p0-0---8p0-0---7p0-0-|-5p0-0---3p0-0---1p0-0-|
B|------------------------|------------------------|-----------------------|-----------------------|
G|------------------------|------------------------|-----------------------|-----------------------|
D|------------------------|------------------------|-----------------------|-----------------------|
A|------------------------|------------------------|-0---------------------|-----------------------|
E|-0----------------------|-0----------------------|-----------------------|-----------------------|


e|-12p0-0---4p0-0---7p0-0-|-12p0-0---4p0-0---7p0-0-|-5p0-0---8p0-0---7p0-0-|-5p0-0---3p0-0---1p0-0-|
B|------------------------|------------------------|-----------------------|-----------------------|
G|------------------------|------------------------|-----------------------|-----------------------|
D|------------------------|------------------------|-----------------------|-----------------------|
A|------------------------|------------------------|-0---------------------|-----------------------|
E|-0----------------------|-0----------------------|-----------------------|-----------------------|



e|-12p0-0---4p0-0---7p0-0-|-12p0-0---4p0-0---7p0-0-|-5p0-0---7p0-0---8p0-0-|-10p0-0--12p0-0--13p0-0-|
B|------------------------|------------------------|-----------------------|------------------------|
G|------------------------|------------------------|-----------------------|------------------------|
D|------------------------|------------------------|-----------------------|------------------------|
A|------------------------|------------------------|-0---------------------|------------------------|
E|-0----------------------|-0----------------------|-----------------------|------------------------|


e|-----0-----0-----0--|-----0-----0-----0--|-----0-----0-----0--|
B|-----0-----0-----0--|-----0-----0-----0--|-----1-----1-----1--|
G|-----1-----1-----1--|-----1-----1-----1--|-----2-----2-----2--|
D|--------------------|--------------------|--------------------|
A|--------------2-----|--------------2-----|--0-----3-----2-----|
E|--0-----4-----------|--0-----4-----------|--------------------|

                                                               
e|-----0-----0-----0--|-----0-----0-----0--|-----0-----0-----0--|
B|-----1-----0-----0--|-----0-----0-----0--|-----0-----0-----0--|
G|-----2-----2-----2--|-----1-----1-----1--|-----1-----1-----1--|
D|--------------------|--------------------|--------------------|
A|--0-----------------|--------------2-----|--------------2-----|
E|--------3-----1-----|--0-----4-----------|--0-----4-----------|

                                                              
e|-----0-----0-----0--|-----0-----0-----0--|
B|-----1-----1-----1--|-----1-----1-----1--|
G|-----2-----2-----2--|-----2-----2-----2--|
D|--------------------|--------------------|
A|--0-----3-----2-----|--0-----------------|
E|--------------------|--------3-----1-----|


e| -----0-----0-----0--|-----0-----0-----0--|-----0-----0-----0--|-----0-----0-----0--|
B| -----0-----0-----0--|-----0-----0-----0--|-----1-----1-----1--|-----1-----0-----0--|
G| -----1-----1-----1--|-----1-----1-----1--|-----2-----2-----2--|-----2-----2-----2--|
D| --------------------|--------------------|--------------------|--0-----2-----3-----|
A| --------------2-----|--------------2-----|--0-----2-----3-----|--------------------|
E| --0-----4-----------|--0-----4-----------|--------------------|--------------------|


  (rasgueado)                                                    (Hold)     v          
e|-0------------------|-0------------------|-0--------0-------0-|-0---------0--------|
B|-0------------------|-0------------------|-0--------0-------0-|-0---------0--------|
G|-1------------------|-2------------------|-4--------2-------1-|-2---------1--------|
D|-2------------------|-3------------------|-5--------3-------2-|-2---------2--------|
A|-2------------------|-3------------------|-5--------3-------2-|-2---------2--------|
E|-0------------------|-0------------------|-0--------0-------0-|-0---------0--------|



************************************

| h  Hammer-on
| p  Pull-off
| /  Slide up

************************************
comments
print report bad tab
3 comments total.
+3 reply
Jarom!r wrote on July 15 2012, 09:03 am

during this part:


T T T T T T T T T T T T
---12-----4-----7---|---12-----4-----7---|---5------8-----7---|---5----3-----1-----|
--------------------|--------------------|--------------------|--------------------|
--------------------|--------------------|--------------------|--------------------|
--------------------|--------------------|--------------------|--------------------|
--------------------|--------------------|---0----------------|--------------------|
---0----------------|---0----------------|--------------------|--------------------|


no tremolo is used. you pull off the note, to the open e string and pick it once again then, for example: -12p0-0-

0 reply
Norroway wrote on May 16 2013, 05:24 am

In this part he plays the third bar more like this. He makes a small barre covering the first three stings.

--------0----0----|------0--4-4/-7---|--------5----8----|-------7-----5-----|
--------0----0----|------------------|----5-------------|----------8-----6--|
*-------1----1----|----7-------------|----5-------------|-------7-----5-----|
*--2--------------|------------------|------------------|-------------------|
------------------|------------------|------------------|-------------------|
---0--------------|--0---------------|--0---------------|--0----------------|

0 reply
Norroway wrote on May 16 2013, 05:41 am

And the chord before the last one is more like this

-0--
-0--
-2--
-3--
-2--
-0--

I want to post or [tab]
guest
You may want to rate the tab now too:
select rating
Please do not post tabs as comments. Select "correction" instead!