Oops, an error
Loading. Please wait.

Spanish Guitar Blues Tab

121 views 15 this week
no commentswrite comment
1 2 3 4 5
2 more votes to show rating
add to favorites
launch autoscroll
font size
0
reset
how to read this tab
guitar tuner
Autoscroll
slow
fast
+/-
esc
set tempo
stop
Help us to improve Ultimate-Guitar.com Take our survey!
×
Author
Difficulty
novice
Q=130(8=s8)
              
             
  4/4
   Gtr I
   H    E E Q    Q  Q  Q  Q     Q   E E +E  E Q    Q  Q  Q  Q
e|-------------|-5-----8-----|--5-----3-(3)------|-5------------|
B|--------5-7--|-5-----8-----|--5-----3-(3)-5-7--|-5------------|
G|-------------|-6-----9-----|--6-----4-(4)------|-6------------|
D|-------------|-------------|-------------------|--------------|
A|-------------|-0-----------|-(0)---------------|-0-----0------|
E|-------------|-------------|-------------------|--------------|
                W             +W


   Q  +E  E E E Q    Q  Q   Q  Q    Q  E E +E  E Q    Q  Q  Q  Q
e|-----------------|-5------8-----|-5----3-(3)------|-5-----------|
B|------------5-7--|-7-----10-----|-7----6-(6)-5-7--|-5-----------|
G|-----------------|-5------8-----|-5----4-(4)------|-6-----------|
D|-----------------|-0------------|-----------------|-------------|
A|-7--(7)-0--------|--------------|-----------------|-0-----0-----|
E|-----------------|--------------|-----------------|-------------|
                    W


            To Coda
   Q  +E  E E E Q    Q  Q   Q  Q    Q  E E +E  E Q    Q  Q  Q  Q
e|-----------------|-5------8-----|-5---------------|-5-----------|
B|------------5-7--|-7-----10-----|-7----8-(8)-5-7--|-5-----------|
G|-----------------|-7-----10-----|-7----7-(7)------|-6-----------|
D|-----------------|--------------|------6-(6)------|-------------|
A|-4--(4)-0--------|--------------|-----------------|-0-----0-----|
E|-----------------|-7------------|-7----0-(0)------|-------------|


              D.S.
   E E E E E E Q      E E E E E E E E   E E E E E E E E   E E E E E E E E
e|----------------||--5-------8-------|-5-------3-------|-----------------|
B|-----------5-7--||o---5-------8-----|---5-------3-----|-5-------3-------|
G|----------------||------6-------9---|-----6-------4---|---6-------4-----|
D|-7-7-5----------||------------------|-----------------|-----7-------5---|
A|-------7--------||o-------0-------0-|-------0-------0-|-------0-------0-|
E|----------------||------------------|-----------------|-----------------|


   E E E E E E Q    E E E E E  E E E   E E E E E E E E   E E E E Q  Q
e|----------------|-5-------8--------|-5-------3-------|-5-------------|
B|-2---------5-7--|---7-------10-----|---7-------6-----|---5-----------|
G|---0------------|-----5--------8---|-----5-------4---|-----6---6-----|
D|-----2----------|-------0--------0-|-------0-------0-|---------------|
A|-------0--------|------------------|-----------------|-------0-------|
E|----------------|------------------|-----------------|---------------|


   H    E E Q    E E E E  E  E E E   E E  E  E Q  Q    E     E Q  H
e|-------------|-------------------|-----------------|-----------------|
B|--------5-7--|-8-----8-------8---|---8-------------|-----------------|
G|-------------|---7------7------7-|------7----9--7--|-5b5.5-----------|
D|-------------|-----6-------6-----|-6-------6-------|-------7---------|
A|-------------|-------7-(7)-------|---7-(7)---------|-----------------|
E|-------------|-0-------------0---|-----------------|-----------------|


   1.                2.
   E E Q  E E Q      E E Q  H       E  E  Q    Q  Q    +E  E Q  Q  E E
e|----------------||-------------|-12-12s11s==12--8--|-(8)-5-7--8--7-5-|
B|----------5-7--o||-------------|-12-12s11s==12--8--|-(8)------5----5-|
G|-6--------------||-6-----------|-12-12s11\--12--8--|-(8)------7----6-|
D|-7--------------||-7-----------|----------------7--|-(7)------6----7-|
A|---0-----------o||---0---------|--0----------------|-----------------|
E|----------------||-------------|-------------------|-----------------|
                                   H          Q  Q


           ~
    Q   Q  Q  Q    Q  Q  Q  Q     E  E  Q    Q   Q     +E  E Q  Q  E E
e|-(5)-----------|-------------|-12-12s11s==12---8--|--(8)-5-7--8--7-5-|
B|-(5)-----------|-------------|-13-13s12s==13--10--|-(10)------5----5-|
G|-(6)-----------|-------0-----|-14-14s13\--14---8--|--(8)------7----6-|
D|-(7)-----------|-2--4--------|--0--------------0--|--(0)------6----7-|
A|--0---2--3--4--|----------0--|--------------------|------------------|
E|---------------|-------------|--------------------|------------------|
                                 H          Q   Q


           ~
    Q   Q  Q  Q    Q  E E E E Q    Q  +E  E +Q   Q    +E  E +Q   Q  Q
e|-(5)-----------|---------------|------------------|------------------|
B|-(5)-----------|----------5-7--|-8--(8)-8-(8)--8--|-(8)-8-(8)--------|
G|-(6)-----------|---------------|-7--(7)-7-(7)--7--|-(7)-7-(7)--9--7--|
D|-(7)-----------|-2-------------|-6--(6)-6-(6)--6--|-(6)-6-(6)--------|
A|--0---2--3--4--|----3h4-0------|------------------|------------------|
E|---------------|---------------|-0--(0)-0-(0)--0--|-(0)-0-(0)--------|


                   D.S.S. al Coda
                                 &
   E E Q  E E Q    E E Q  E E Q    E E E E E E E E   E E +E  E Q  Q
e|---------------|-5-------------|-----------------|-----------------|
B|---------------|-2--------5-7--|-8-----8-----8---|---8-(8)---------|
G|-5-------------|-2-------------|-7-----7-----7---|---7-(7)---9--7--|
D|---7-----------|---------------|-6-----6-----6---|---6-(6)---------|
A|-0-------------|---0-----------|-----------------|-----------------|
E|----------0-2--|---------------|---0-0---0-0---0-|-0---------------|


   E     E Q  E E Q    Q  T E.. H      W
e|-------------------|----5----------|------*|
B|-------------------|----2----------|------*|
G|-5b5.5-------------|----2----------|------*|
D|-------7-----------|----2----------|------*|
A|-------------------|----0----------|------*|
E|--------------0-2--|---------------|------*|


Duration Legend
---------------
W - whole; H - half; Q - quarter; E - 8th; S - 16th; T - 32nd; X - 64th; a - acciaccatura
+ - note tied to previous; . - note dotted; .. - note double dotted
Uncapitalized letters represent notes that are staccato (1/2 duration)
Irregular groupings are notated above the duration line
Duration letters will always appear directly above the note/fret number it represents the
duration for.  Duration letters with no fret number below them represent rests.  Multi-
bar rests are notated in the form Wxn, where n is the number of bars to rest for.  Low
melody durations appear below the staff


************************************

| (n)  Ghost note
| h    Hammer-on
| b    Bend
| \    Slide down
| s    Slide

************************************
Suggest correction
Give kudos to tab author, rate the tab!
1 2 3 4 5
comments
print report bad tab
guest
You may want to rate the tab now too:
select rating
Wanna post a correction for this tab? Suggest correction