Oops, an error
Loading. Please wait.

Wildfire tab

version 2
version 2

Whole song

Interactive

475 views 9 this week
1 commentread comment
1 2 3 4 5
2 more votes to show rating
add to favorites
×
Save as Personal and add changes to this tab that will be seen only by you. Learn more ›
×
You can save this tab as Personal to edit and correct it or add notes. All changes will be seen only by you. Learn more »
launch autoscroll
font size
0
reset
how to read this tab
guitar tuner
backing track
0:00
0:00
edit
Autoscroll
slow
fast
+/-
esc
set tempo
stop
Author
Difficulty
WILDFIRE

As recorded by Michael Martin Murphey
(From the 1975 Album BLUE SKY – NIGHT THUNDER)

Words and Music by Michael Martin Murphey & Larry Cansler

Transcribed by Slowhand


Gtr I (E A D G B E) - 'Michael Martin Murphey - Acoustic Guitar'
Gtr II (E A D G B E) - 'Sam Broussard - Electric Guitar'
Gtr III (E A D G B E) - 'Jac Murphy - Piano'


 Intro 1 & Interlude
  Q=76
  $$
  E
 4/4
  Gtr III (Piano arr. for Gtr.)
  E  E    E    E    E    E    E     E
|------------------------7------------|
|-------------------7---------9-------|
|----9---------9--------------------9-|
|---------9---------------------------|
|------7-(7)-7---7-(7)-7---7-(7)-7----|
|-0-----------------------------------|
  E.   S +S  E   S +S  E   S +S  E.


  F#m7
   Q   S  E  S  +S   E  S  Q     S  E  S  +S   E  S  H
|--0---0--0--0--(0)--0--0--0--|--0--0--0--(0)--0--0--0----|
|-10--10-10-10-(10)-10-10-10--|-10-10-10-(10)-10-10-10----|
|-11--11-11-11-(11)-11-11-11--|-11-11-11-(11)-11-11-11----|
|-11--11-11-11-(11)-11-11-11--|-11-11-11-(11)-11-11-11----|
|--9---9--9--9--(9)--9--9--9--|--9--9--9--(9)--9--9--9----|
|-----------------------------|---------------------------|


  F#m
  E     E    E     E    E    E    E      E
|----------------------------9-------------|
|----------------------10--------10--------|
|------11---------11--------------------11-|
|---11------11-----------------------------|
|-9-------9-(9)-9----9-(9)-9---9-(9)-9-----|
|------------------------------------------|
  S  E    S +S  E    S +S  E   S +S  E.


  Eadd9
   Q   S  E  S  +S   E  S  Q     S  E  S  +S   E  S  H
|--0---0--0--0--(0)--0--0--0--|--0--0--0--(0)--0--0--0----|
|--0---0--0--0--(0)--0--0--0--|--0--0--0--(0)--0--0--0----|
|-11--11-11-11-(11)-11-11-11--|-11-11-11-(11)-11-11-11----|
|--9---9--9--9--(9)--9--9--9--|--9--9--9--(9)--9--9--9----|
|-11--11-11-11-(11)-11-11-11--|-11-11-11-(11)-11-11-11----|
|--0---0--0--0--(0)--0--0--0--|--0--0--0--(0)--0--0--0----|


  E
  E   E    E    E    E    E    E     E
|--------------------7---------7-------|
|---------------9---------9----------9-|
|-----9--------------------------------|
|----------9---------------------------|
|---7---7-(7)-7---7-(7)-7---7-(7)-7----|
|-0------------------------------------|
  S E   S +S  E   S +S  E   S +S  E.


  E
  E     E    E     E    E     E    E      E
|--------------------------------------------|
|----------------------10---------10---------|
|------11---------11---------11----------11--|
|---11------11-------------------------------|
|-9-------9-(9)-9----9-(9)-9----9-(9)-9------|
|--------------------------------------------|
  S  E    S +S  E    S +S  E    S +S  E.


                           To Dbl. Coda
  E
  E   E    E    E    E    E    E     E
|---------------------------------------|
|-9------------------9------------------|
|-----9---------9---------9----------9--|
|----------9-------------------9--------|
|---7---7-(7)-7---7-(7)-7---7-(7)-7-----|
|---------------------------------------|
  S E   S +S  E   S +S  E   S +S  E.


                         Intro 2
                       Q=82
  F#m7         B7         Emaj7
                          Gtr I (Ac. Gtr.)
   E.    S  Q  Q.    E    E. S E E +S  S S S S S S S
|----------------------||-----------------------------|
|----------------------||-4--4-4-4-(4)-4-4-4-4-4-4-4--|
|-11-----9-11--8-----9-||-1--1-1-1-(1)-1-1-1-1-1-1-1--|
|-----11-------7-------||-----------------------------|
|--9-------------------||-2--2-2-2-(2)-2-2-2-2-2-2-2--|
|------------------7---||-0--0-0-0-(0)-0-0-0-0-0-0-0--|
   E   E    Q  Q   Q


  A
  E. S E E +S  S S S S S S S
|-5--5-5-5-(5)-5-5-5-5-5-5-5-|
|-5--5-5-5-(5)-5-5-5-5-5-5-5-|
|-6--6-6-6-(6)-6-6-6-6-6-6-6-|
|-7--7-7-7-(7)-7-7-7-7-7-7-7-|
|-0--0-0-0-(0)-0-0-0-0-0-0-0-|
|----------------------------|


  E    Emaj7                   A
  E. S E E +S  S S S S S S S   E. S E E +S  S S S S S S S
|-0--0-----------------------|-5--5-5-5-(5)-5-5-5-5-5-5-5-|
|-0--0-4-4-(4)-4-4-4-4-4-4-4-|-5--5-5-5-(5)-5-5-5-5-5-5-5-|
|-1--1-1-1-(1)-1-1-1-1-1-1-1-|-6--6-6-6-(6)-6-6-6-6-6-6-6-|
|-2--2-----------------------|-7--7-7-7-(7)-7-7-7-7-7-7-7-|
|-2--2-2-2-(2)-2-2-2-2-2-2-2-|-0--0-0-0-(0)-0-0-0-0-0-0-0-|
|-0--0-0-0-(0)-0-0-0-0-0-0-0-|----------------------------|


  E           Emaj7                             A
   E.       S  E  E    +S  S  S S  S  S  S  S    E. S E E +S  S S S S S S S
|--0--------0---------------------------------|--5--5-5-5-(5)-5-5-5-5-5-5-5-|
|--0--------0--4--4----(4)-4--4-4--4--4--4--4-|--5--5-5-5-(5)-5-5-5-5-5-5-5-|
|--1--------1--1--1----(1)-1--1-1--1--1--1--1-|--6--6-6-6-(6)-6-6-6-6-6-6-6-|
|--2--------2---------------------------------|--7--7-7-7-(7)-7-7-7-7-7-7-7-|
|--2--------2--2--2----(2)-2--2-2--2--2--2--2-|--0--0-0-0-(0)-0-0-0-0-0-0-0-|
|--0--------0--0--0----(0)-0--0-0--0--0--0--0-|-----------------------------|
|
| Gtr II (Clean El. Gtr. w/ flanger)
|  S  S  S  S  E  S  S  S  S  E    S  S  S  S    W
|-21p16-21p16----19p16-19p16------21p16-21p16-|-----------------------------|
|-------------17-------------16---------------|-17--------------------------|
|---------------------------------------------|-----------------------------|
|---------------------------------------------|-----------------------------|
|---------------------------------------------|-----------------------------|
|---------------------------------------------|-----------------------------|


  E           Emaj7
   E.       S  E  E    +S  S  S S  S  S  S  S
|--0--------0----------------------------------|
|--0--------0--4--4----(4)-4--4-4--4--4--4--4--|
|--1--------1--1--1----(1)-1--1-1--1--1--1--1--|
|--2--------2----------------------------------|
|--2--------2--2--2----(2)-2--2-2--2--2--2--2--|
|--0--------0--0--0----(0)-0--0-0--0--0--0--0--|
|
|  S  S  S  S  E  S  S  S  S  E    S  S  S  S
|-21p16-21p16----19p16-19p16------21p16-21p16--|
|-------------17-------------16----------------|
|----------------------------------------------|
|----------------------------------------------|
|----------------------------------------------|
|----------------------------------------------|


                              $
  A
   E. S E E +S  S S S S S S S
|--5--5-5-5-(5)-5-5-5-5-5-5-5-|
|--5--5-5-5-(5)-5-5-5-5-5-5-5-|
|--6--6-6-6-(6)-6-6-6-6-6-6-6-|
|--7--7-7-7-(7)-7-7-7-7-7-7-7-|
|--0--0-0-0-(0)-0-0-0-0-0-0-0-|
|-----------------------------|
|
|  W
|-----------------------------|
|-17--------------------------|
|-----------------------------|
|-----------------------------|
|-----------------------------|
|-----------------------------|


   1st - 3rd Verses
    E    Emaj7                   A
    E. S E E +S  S S S S S S S   E. S E E +S  S S S S S S S
||--0--0-----------------------|-5--5-5-5-(5)-5-5-5-5-5-5-5-|
||o-0--0-4-4-(4)-4-4-4-4-4-4-4-|-5--5-5-5-(5)-5-5-5-5-5-5-5-|
||--1--1-1-1-(1)-1-1-1-1-1-1-1-|-6--6-6-6-(6)-6-6-6-6-6-6-6-|
||--2--2-----------------------|-7--7-7-7-(7)-7-7-7-7-7-7-7-|
||o-2--2-2-2-(2)-2-2-2-2-2-2-2-|-0--0-0-0-(0)-0-0-0-0-0-0-0-|
||--0--0-0-0-(0)-0-0-0-0-0-0-0-|----------------------------|
|
|   W                            W
||-----------------------------|----------------------------|
||o----------------------------|----------------------------|
||-----------------------------|----------------------------|
||-----------------------------|----------------------------|
||o----------------------------|----------------------------|
||-----------------------------|----------------------------|


  E    Emaj7
  E. S E E +S  S S S S S S S
|-0--0-----------------------|
|-0--0-4-4-(4)-4-4-4-4-4-4-4-|
|-1--1-1-1-(1)-1-1-1-1-1-1-1-|
|-2--2-----------------------|
|-2--2-2-2-(2)-2-2-2-2-2-2-2-|
|-0--0-0-0-(0)-0-0-0-0-0-0-0-|


  A                            Amaj7
  E. S E E +S  S S S S S S S   E. S E E +S  S S S S S S S
|-5--5-5-5-(5)-5-5-5-5-5-5-5-|-0--0-0-0-(0)-0-0-0-0-0-0-0-|
|-5--5-5-5-(5)-5-5-5-5-5-5-5-|-5--5-5-5-(5)-5-5-5-5-5-5-5-|
|-6--6-6-6-(6)-6-6-6-6-6-6-6-|-6--6-6-6-(6)-6-6-6-6-6-6-6-|
|-7--7-7-7-(7)-7-7-7-7-7-7-7-|-6--6-6-6-(6)-6-6-6-6-6-6-6-|
|-0--0-0-0-(0)-0-0-0-0-0-0-0-|-0--0-0-0-(0)-0-0-0-0-0-0-0-|
|----------------------------|-5--5-5-5-(5)-5-5-5-5-5-5-5-|


  G#m                          Amaj7
  E. S E E +S  S S S S S S S   E. S E E +S  S S S S S S S
|-4--4-4-4-(4)-4-4-4-4-4-4-4-|-0--0-0-0-(0)-0-0-0-0-0-0-0-|
|-4--4-4-4-(4)-4-4-4-4-4-4-4-|-5--5-5-5-(5)-5-5-5-5-5-5-5-|
|-4--4-4-4-(4)-4-4-4-4-4-4-4-|-6--6-6-6-(6)-6-6-6-6-6-6-6-|
|-6--6-6-6-(6)-6-6-6-6-6-6-6-|-6--6-6-6-(6)-6-6-6-6-6-6-6-|
|-6--6-6-6-(6)-6-6-6-6-6-6-6-|-0--0-0-0-(0)-0-0-0-0-0-0-0-|
|-4--4-4-4-(4)-4-4-4-4-4-4-4-|-5--5-5-5-(5)-5-5-5-5-5-5-5-|


                      To Coda
  G#m
  E. S E E +S  S S S S S S S
|-4--4-4-4-(4)-4-4-4-4-4-4-4---|
|-4--4-4-4-(4)-4-4-4-4-4-4-4---|
|-4--4-4-4-(4)-4-4-4-4-4-4-4---|
|-6--6-6-6-(6)-6-6-6-6-6-6-6---|
|-6--6-6-6-(6)-6-6-6-6-6-6-6---|
|-4--4-4-4-(4)-4-4-4-4-4-4-4---|


  F#m                          G#m
  E. S E E +S  S S S S S S S   E. S E E +S  S S S S S S S
|-2--2-2-2-(2)-2-2-2-2-2-2-2-|-4--4-4-4-(4)-4-4-4-4-4-4-4-|
|-2--2-2-2-(2)-2-2-2-2-2-2-2-|-4--4-4-4-(4)-4-4-4-4-4-4-4-|
|-2--2-2-2-(2)-2-2-2-2-2-2-2-|-4--4-4-4-(4)-4-4-4-4-4-4-4-|
|-4--4-4-4-(4)-4-4-4-4-4-4-4-|-6--6-6-6-(6)-6-6-6-6-6-6-6-|
|-4--4-4-4-(4)-4-4-4-4-4-4-4-|-6--6-6-6-(6)-6-6-6-6-6-6-6-|
|-2--2-2-2-(2)-2-2-2-2-2-2-2-|-4--4-4-4-(4)-4-4-4-4-4-4-4-|


  1.
                               E           Emaj7
  E. S E E +S  S S S S S S S    E.       S  E  E    +S  S  S S  S  S  S  S
|-4--4-4-4-(4)-4-4-4-4-4-4-4-|--0--------0---------------------------------|
|-4--4-4-4-(4)-4-4-4-4-4-4-4-|--0--------0--4--4----(4)-4--4-4--4--4--4--4-|
|-4--4-4-4-(4)-4-4-4-4-4-4-4-|--1--------1--1--1----(1)-1--1-1--1--1--1--1-|
|-6--6-6-6-(6)-6-6-6-6-6-6-6-|--2--------2---------------------------------|
|-6--6-6-6-(6)-6-6-6-6-6-6-6-|--2--------2--2--2----(2)-2--2-2--2--2--2--2-|
|-4--4-4-4-(4)-4-4-4-4-4-4-4-|--0--------0--0--0----(0)-0--0-0--0--0--0--0-|
|
| Gtr II
| W                             S  S  S  S  E  S  S  S  S  E    S  S  S  S
|----------------------------|-21p16-21p16----19p16-19p16------21p16-21p16-|
|----------------------------|-------------17-------------16---------------|
|----------------------------|---------------------------------------------|
|----------------------------|---------------------------------------------|
|----------------------------|---------------------------------------------|
|----------------------------|---------------------------------------------|


  A
   E. S E E +S  S S S S S S S
|--5--5-5-5-(5)-5-5-5-5-5-5-5--|
|--5--5-5-5-(5)-5-5-5-5-5-5-5--|
|--6--6-6-6-(6)-6-6-6-6-6-6-6--|
|--7--7-7-7-(7)-7-7-7-7-7-7-7--|
|--0--0-0-0-(0)-0-0-0-0-0-0-0--|
|------------------------------|
|
|  W
|------------------------------|
|-17---------------------------|
|------------------------------|
|------------------------------|
|------------------------------|
|------------------------------|


  E           Emaj7
   E.       S  E  E    +S  S  S S  S  S  S  S
|--0--------0---------------------------------|
|--0--------0--4--4----(4)-4--4-4--4--4--4--4-|
|--1--------1--1--1----(1)-1--1-1--1--1--1--1-|
|--2--------2---------------------------------|
|--2--------2--2--2----(2)-2--2-2--2--2--2--2-|
|--0--------0--0--0----(0)-0--0-0--0--0--0--0-|
|
|  S  S  S  S  E  S  S  S  S  E    S  S  S  S
|-21p16-21p16----19p16-19p16------21p16-21p16-|
|-------------17-------------16---------------|
|---------------------------------------------|
|---------------------------------------------|
|---------------------------------------------|
|---------------------------------------------|


                                 2.
  A                               G#m
   E. S E E +S  S S S S S S S     S S S S S S S S +S  S S S E E
|--5--5-5-5-(5)-5-5-5-5-5-5-5--||-4-4-4-4-4-4-4-4-(4)-4-4-4-4-4---||
|--5--5-5-5-(5)-5-5-5-5-5-5-5-o||-4-4-4-4-4-4-4-4-(4)-4-4-4-4-4---||
|--6--6-6-6-(6)-6-6-6-6-6-6-6--||-4-4-4-4-4-4-4-4-(4)-4-4-4-4-4---||
|--7--7-7-7-(7)-7-7-7-7-7-7-7--||-6-6-6-6-6-6-6-6-(6)-6-6-6-6-6---||
|--0--0-0-0-(0)-0-0-0-0-0-0-0-o||-6-6-6-6-6-6-6-6-(6)-6-6-6-6-6---||
|------------------------------||-4-4-4-4-4-4-4-4-(4)-4-4-4-4-4---||
|
|  W                              W
|------------------------------||---------------------------------||
|-17--------------------------o||---------------------------------||
|------------------------------||---------------------------------||
|------------------------------||---------------------------------||
|-----------------------------o||---------------------------------||
|------------------------------||---------------------------------||


 Chorus
  Amaj7                   G#m                     Amaj7
  E S S e E S S S S e e   E S S e E S S S S e e   E S S e E S S S S e e
|-0-0-0-0-0-0-0-0-0-0-0-|-4-4-4-4-4-4-4-4-4-4-4-|-0-0-0-0-0-0-0-0-0-0-0--|
|-5-5-5-5-5-5-5-5-5-5-5-|-4-4-4-4-4-4-4-4-4-4-4-|-5-5-5-5-5-5-5-5-5-5-5--|
|-6-6-6-6-6-6-6-6-6-6-6-|-4-4-4-4-4-4-4-4-4-4-4-|-6-6-6-6-6-6-6-6-6-6-6--|
|-6-6-6-6-6-6-6-6-6-6-6-|-6-6-6-6-6-6-6-6-6-6-6-|-6-6-6-6-6-6-6-6-6-6-6--|
|-0-0-0-0-0-0-0-0-0-0-0-|-6-6-6-6-6-6-6-6-6-6-6-|-0-0-0-0-0-0-0-0-0-0-0--|
|-5-5-5-5-5-5-5-5-5-5-5-|-4-4-4-4-4-4-4-4-4-4-4-|-5-5-5-5-5-5-5-5-5-5-5--|


  G#m                     Amaj7     G#m           F#m       B7
  E S S e E S S S S e e   E S S e E S S S S e e   E S S e E S S S S e e
|-4-4-4-4-4-4-4-4-4-4-4-|-0-0-0-0-0-4-4-4-4-4-4-|-2-2-2-2-2-2-2-2-2-2-2--|
|-4-4-4-4-4-4-4-4-4-4-4-|-5-5-5-5-5-4-4-4-4-4-4-|-2-2-2-2-2-0-0-0-0-0-0--|
|-4-4-4-4-4-4-4-4-4-4-4-|-6-6-6-6-6-4-4-4-4-4-4-|-2-2-2-2-2-2-2-2-2-2-2--|
|-6-6-6-6-6-6-6-6-6-6-6-|-6-6-6-6-6-6-6-6-6-6-6-|-4-4-4-4-4-1-1-1-1-1-1--|
|-6-6-6-6-6-6-6-6-6-6-6-|-0-0-0-0-0-6-6-6-6-6-6-|-4-4-4-4-4-2-2-2-2-2-2--|
|-4-4-4-4-4-4-4-4-4-4-4-|-5-5-5-5-5-4-4-4-4-4-4-|-2-2-2-2-2--------------|


  E    Emaj7      A
  Q.   E +H       Q  +E  S S E S S E E
|-0-------------|-5--(5)-5-5-5-5-5-5-5-|
|-0----4-(4)----|-5--(5)-5-5-5-5-5-5-5-|
|-1----1-(1)----|-6--(6)-6-6-6-6-6-6-6-|
|-2-------------|-7--(7)-7-7-7-7-7-7-7-|
|-2----2-(2)----|-0--(0)-0-0-0-0-0-0-0-|
|-0----0-(0)----|----------------------|


                           D.S. al Coda
  E    Emaj7      A
  Q.   E +H       Q  +E  S S E S S E E
|-0-------------|-5--(5)-5-5-5-5-5-5-5--||
|-0----4-(4)----|-5--(5)-5-5-5-5-5-5-5--||
|-1----1-(1)----|-6--(6)-6-6-6-6-6-6-6--||
|-2-------------|-7--(7)-7-7-7-7-7-7-7--||
|-2----2-(2)----|-0--(0)-0-0-0-0-0-0-0--||
|-0----0-(0)----|-----------------------||


  &
  Amaj7
  E. S E E +S  S S S S S S S
|-0--0-0-0-(0)-0-0-0-0-0-0-0-|
|-5--5-5-5-(5)-5-5-5-5-5-5-5-|
|-6--6-6-6-(6)-6-6-6-6-6-6-6-|
|-6--6-6-6-(6)-6-6-6-6-6-6-6-|
|-0--0-0-0-(0)-0-0-0-0-0-0-0-|
|-5--5-5-5-(5)-5-5-5-5-5-5-5-|


  G#m                          F#m
  E. S E E +S  S S S S S S S   E. S E E +S  S S S S S S S
|-4--4-4-4-(4)-4-4-4-4-4-4-4-|-2--2-2-2-(2)-2-2-2-2-2-2-2-|
|-4--4-4-4-(4)-4-4-4-4-4-4-4-|-2--2-2-2-(2)-2-2-2-2-2-2-2-|
|-4--4-4-4-(4)-4-4-4-4-4-4-4-|-2--2-2-2-(2)-2-2-2-2-2-2-2-|
|-6--6-6-6-(6)-6-6-6-6-6-6-6-|-4--4-4-4-(4)-4-4-4-4-4-4-4-|
|-6--6-6-6-(6)-6-6-6-6-6-6-6-|-4--4-4-4-(4)-4-4-4-4-4-4-4-|
|-4--4-4-4-(4)-4-4-4-4-4-4-4-|-2--2-2-2-(2)-2-2-2-2-2-2-2-|


  G#m
  E. S E E +S  S S S S S S S   S S S S +S  S S S +S  S S S E S S
|-4--4-4-4-(4)-4-4-4-4-4-4-4-|-4-4-4-4-(4)-4-4-4-(4)-4-4-4-4-4-4-||
|-4--4-4-4-(4)-4-4-4-4-4-4-4-|-4-4-4-4-(4)-4-4-4-(4)-4-4-4-4-4-4-||
|-4--4-4-4-(4)-4-4-4-4-4-4-4-|-4-4-4-4-(4)-4-4-4-(4)-4-4-4-4-4-4-||
|-6--6-6-6-(6)-6-6-6-6-6-6-6-|-6-6-6-6-(6)-6-6-6-(6)-6-6-6-6-6-6-||
|-6--6-6-6-(6)-6-6-6-6-6-6-6-|-6-6-6-6-(6)-6-6-6-(6)-6-6-6-6-6-6-||
|-4--4-4-4-(4)-4-4-4-4-4-4-4-|-4-4-4-4-(4)-4-4-4-(4)-4-4-4-4-4-4-||


 Chorus
  Amaj7                   G#m                     Amaj7
  E S S e E S S S S e e   E S S e E S S S S e e   E S S e E S S S S e e
|-0-0-0-0-0-0-0-0-0-0-0-|-4-4-4-4-4-4-4-4-4-4-4-|-0-0-0-0-0-0-0-0-0-0-0--|
|-5-5-5-5-5-5-5-5-5-5-5-|-4-4-4-4-4-4-4-4-4-4-4-|-5-5-5-5-5-5-5-5-5-5-5--|
|-6-6-6-6-6-6-6-6-6-6-6-|-4-4-4-4-4-4-4-4-4-4-4-|-6-6-6-6-6-6-6-6-6-6-6--|
|-6-6-6-6-6-6-6-6-6-6-6-|-6-6-6-6-6-6-6-6-6-6-6-|-6-6-6-6-6-6-6-6-6-6-6--|
|-0-0-0-0-0-0-0-0-0-0-0-|-6-6-6-6-6-6-6-6-6-6-6-|-0-0-0-0-0-0-0-0-0-0-0--|
|-5-5-5-5-5-5-5-5-5-5-5-|-4-4-4-4-4-4-4-4-4-4-4-|-5-5-5-5-5-5-5-5-5-5-5--|


  G#m                     Amaj7     G#m           F#m       B7
  E S S e E S S S S e e   E S S e E S S S S e e   E S S e E S S S S e e
|-4-4-4-4-4-4-4-4-4-4-4-|-0-0-0-0-0-4-4-4-4-4-4-|-2-2-2-2-2-2-2-2-2-2-2--||
|-4-4-4-4-4-4-4-4-4-4-4-|-5-5-5-5-5-4-4-4-4-4-4-|-2-2-2-2-2-0-0-0-0-0-0--||
|-4-4-4-4-4-4-4-4-4-4-4-|-6-6-6-6-6-4-4-4-4-4-4-|-2-2-2-2-2-2-2-2-2-2-2--||
|-6-6-6-6-6-6-6-6-6-6-6-|-6-6-6-6-6-6-6-6-6-6-6-|-4-4-4-4-4-1-1-1-1-1-1--||
|-6-6-6-6-6-6-6-6-6-6-6-|-0-0-0-0-0-6-6-6-6-6-6-|-4-4-4-4-4-2-2-2-2-2-2--||
|-4-4-4-4-4-4-4-4-4-4-4-|-5-5-5-5-5-4-4-4-4-4-4-|-2-2-2-2-2--------------||


  Amaj7                   G#m                     Amaj7
  E S S e E S S S S e e   E S S e E S S S S e e   E S S e E S S S S e e
|-0-0-0-0-0-0-0-0-0-0-0-|-4-4-4-4-4-4-4-4-4-4-4-|-0-0-0-0-0-0-0-0-0-0-0--|
|-5-5-5-5-5-5-5-5-5-5-5-|-4-4-4-4-4-4-4-4-4-4-4-|-5-5-5-5-5-5-5-5-5-5-5--|
|-6-6-6-6-6-6-6-6-6-6-6-|-4-4-4-4-4-4-4-4-4-4-4-|-6-6-6-6-6-6-6-6-6-6-6--|
|-6-6-6-6-6-6-6-6-6-6-6-|-6-6-6-6-6-6-6-6-6-6-6-|-6-6-6-6-6-6-6-6-6-6-6--|
|-0-0-0-0-0-0-0-0-0-0-0-|-6-6-6-6-6-6-6-6-6-6-6-|-0-0-0-0-0-0-0-0-0-0-0--|
|-5-5-5-5-5-5-5-5-5-5-5-|-4-4-4-4-4-4-4-4-4-4-4-|-5-5-5-5-5-5-5-5-5-5-5--|


  G#m                     Amaj7                   G#m
  E S S e E S S S S e e   E S S e E S S S S e e   E S S e E S S S S e e
|-4-4-4-4-4-4-4-4-4-4-4-|-0-0-0-0-0-0-0-0-0-0-0-|-4-4-4-4-4-4-4-4-4-4-4--|
|-4-4-4-4-4-4-4-4-4-4-4-|-5-5-5-5-5-5-5-5-5-5-5-|-4-4-4-4-4-4-4-4-4-4-4--|
|-4-4-4-4-4-4-4-4-4-4-4-|-6-6-6-6-6-6-6-6-6-6-6-|-4-4-4-4-4-4-4-4-4-4-4--|
|-6-6-6-6-6-6-6-6-6-6-6-|-6-6-6-6-6-6-6-6-6-6-6-|-6-6-6-6-6-6-6-6-6-6-6--|
|-6-6-6-6-6-6-6-6-6-6-6-|-0-0-0-0-0-0-0-0-0-0-0-|-6-6-6-6-6-6-6-6-6-6-6--|
|-4-4-4-4-4-4-4-4-4-4-4-|-5-5-5-5-5-5-5-5-5-5-5-|-4-4-4-4-4-4-4-4-4-4-4--|


  Amaj7     G#m           F#m       B7            E    Emaj7
  E S S e E S S S S e e   E S S e E S S S S e e   Q.   E +H
|-0-0-0-0-0-4-4-4-4-4-4-|-2-2-2-2-2-2-2-2-2-2-2-|-0-------------|
|-5-5-5-5-5-4-4-4-4-4-4-|-2-2-2-2-2-0-0-0-0-0-0-|-0----4-(4)----|
|-6-6-6-6-6-4-4-4-4-4-4-|-2-2-2-2-2-2-2-2-2-2-2-|-1----1-(1)----|
|-6-6-6-6-6-6-6-6-6-6-6-|-4-4-4-4-4-1-1-1-1-1-1-|-2-------------|
|-0-0-0-0-0-6-6-6-6-6-6-|-4-4-4-4-4-2-2-2-2-2-2-|-2----2-(2)----|
|-5-5-5-5-5-4-4-4-4-4-4-|-2-2-2-2-2-------------|-0----0-(0)----|


                                       D.S.S. al Dbl. Coda
  A                    E    Emaj7      A
  Q.   S S E S S E E   Q.   E +H       Q.   S S E S S E E
|-5----5-5-5-5-5-5-5-|-0-------------|-5----5-5-5-5-5-5-----||
|-5----5-5-5-5-5-5-5-|-0----4-(4)----|-5----5-5-5-5-5-5-----||
|-6----6-6-6-6-6-6-6-|-1----1-(1)----|-6----6-6-6-6-6-6-----||
|-7----7-7-7-7-7-7-7-|-2-------------|-7----7-7-7-7-7-7-----||
|-0----0-0-0-0-0-0-0-|-2----2-(2)----|-0----0-0-0-0-0-0-----||
|--------------------|-0----0-(0)----|----------------------||


 Outro
  Q=76
  &&
  F#m7         B7        Eadd9
  Gtr III
   E.    S  Q  Q.    E    Q   S  E  S  +S   E  S  Q
|----------------------|--0---0--0--0--(0)--0--0--0--|
|----------------------|--0---0--0--0--(0)--0--0--0--|
|-11-----9-11--8-----9-|-11--11-11-11-(11)-11-11-11--|
|-----11-------7-------|--9---9--9--9--(9)--9--9--9--|
|--9-------------------|-11--11-11-11-(11)-11-11-11--|
|------------------7---|--0---0--0--0--(0)--0--0--0--|
   E   E    Q  Q   Q


   S  E  S  +S   E  S  H
|--0--0--0--(0)--0--0--0----*|
|--0--0--0--(0)--0--0--0----*|
|-11-11-11-(11)-11-11-11----*|
|--9--9--9--(9)--9--9--9----*|
|-11-11-11-(11)-11-11-11----*|
|--0--0--0--(0)--0--0--0----*|


Duration Legend
---------------
W - whole; H - half; Q - quarter; E - 8th; S - 16th; T - 32nd; X - 64th; a - acciaccatura
+ - note tied to previous; . - note dotted; .. - note double dotted
Uncapitalized letters represent notes that are staccato (1/2 duration)
Irregular groupings are notated above the duration line
Duration letters will always appear directly above the note/fret number it represents the
duration for.  Duration letters with no fret number below them represent rests.  Multi-
bar rests are notated in the form Wxn, where n is the number of bars to rest for.  Low
melody durations appear below the staff

Tablature Legend
----------------
 h   - hammer-on
 p   - pull-off
 b   - bend
 pb  - pre-bend
 r   - bend release (if no number after the r, then release immediately)
 /\  - slide into or out of (from/to "nowhere")
 s   - legato slide
 S   - shift slide
  - natural harmonic
[n]  - artificial harmonic
n(n) - tapped harmonic
 ~   - vibrato
 tr  - trill
 T   - tap
 TP  - trem. picking
 PM  - palm muting
\n/  - tremolo bar dip; n = amount to dip
 \n  - tremolo bar down
 n/  - tremolo bar up
/n\  - tremolo bar inverted dip
 =   - hold bend; also acts as connecting device for hammers/pulls
 <>  - volume swell (louder/softer)
 x   - on rhythm slash represents muted slash
 o   - on rhythm slash represents single note slash

Misc Legend
-----------
 |  - bar
||  - double bar
||o - repeat start
o|| - repeat end
*|  - double bar (ending)
 :  - bar (freetime)
 $  - Segno
 &  - Coda
Tempo markers -  = BPM(8/16=s8/s16), where s8 = swing 8ths, s16 = swing 16ths




She comes down from Yellow Mountain
On a dark, flat land she rides
On a pony she named Wildfire
With a whirlwind by her side
On a cold Nebraska night

Oh, they say she died one winter
When there came a killing frost
And the pony she named Wildfire
Busted down it's stall
In a blizzard she was lost

She ran calling Wildfire [x3]
By the dark of the moon I planted
But there came an early snow
There's been a hoot-owl howling by my window now
For six nights in a row
She's coming for me, I know
And on Wildfire we're both gonna go

We'll be riding Wildfire [x3]

On Wildfire we're gonna ride
Gonna leave sodbustin' behind
Get these hard times right on out of our minds
Riding Wildfire

            
            
Suggest correction
Creating personal tab
Creating personal tab
You can edit any tab online and save it as your Personal.

You can edit, replace or remove any tab part or add personal notes – all changes will be seen only by you.

Personal tabs can be accessed anytime from any device, even offline.
Learn more »
Give kudos to tab author, rate the tab!
1 2 3 4 5
comments
print report bad tab
1 comment total.
0 reply
kjlee2112 214 Sep 21, 2016 11:51 PM

The detail here is fantastic! Superb job!! I have one minor tweaking that I believe helps in the verses....

I think the A in the verses isn't just a straight A... there is some Asus4 (x02230) and Aadd9 (x02420) swimming in there after the A where he's hammering onto those two notes from the straight A (x02220)... it can be accomplished with the 5th position A as well, just requires a little more pinky dexterity... Asus4 (x07755) and Aadd9 (x09655) where the root A (x07655) shape is held, but the pinky hits those extra notes.

Just my .02. Still works as is - AMAZING version, thank you so much!

guest
You may want to rate the tab now too:
select rating
Wanna post a correction for this tab? Suggest correction