Oops, an error
Loading. Please wait.

Tnt Diet Bass Tab

version 1
version 1

Whole song

Interactive

183 views 3 this week
no commentswrite comment
1 2 3 4 5
please rate
add to favorites
launch autoscroll
font size
0
reset
guitar tuner
Autoscroll
slow
fast
+/-
esc
set tempo
stop
Help us to improve Ultimate-Guitar.com Take our survey!
×
Contributor
Difficulty
novice
-------------------------------------------------------------------------------
                                        TNT Diet - Michael Monroe
-------------------------------------------------------------------------------

Tabbed by: ChrisT

From the Album: Horns and Halos (2013)

Tuning: Standard

Intro                                                  Repeat x2
G|--------------------------------------------------------------|
D|o------------------------------------------------------------o|
A|o--7-7-7-----------------------7-7-7-------------------------o|
E|---------9-9-9-7h9-9-9-7h9-9-9-------7-7-7-5h7-7-7-5h7-7-7----|

Verse                                                  Repeat x4
G|--------------------------------------------------------------|
D|o------------------------------------------------------------o|
A|o--7-7-7-----------------------7-7-7-------------------------o|
E|---------9-9-9-7h9-9-9-7h9-9-9-------7-7-7-5h7-7-7-5h7-7-7----|

Chorus
G|---------------------------------------------------------------------------|
D|---------------------------------------------------------------------------|
A|----------------------------------------7-7-7-7-5h7-7-7-5h7-7-7-5h7-7-7----|
E|---7\2-2-2-2-0h2-2-2-3h5-5-5-3h5-5-5/12\-----------------------------------|

G|----------------------------------------------------------------------|
D|----------------------------------------------------------------------|
A|----------------------------------------------------------------------|
E|---7-7-7-7-7-7-7-7-8-8-8-8-8-8-8-8-9-9-9-9-9-9-9-9-7-7-7-7-7-7-7-7----|

G|----------------------------------------------------------------------|
D|----------------------------------------------------------------------|
A|----------------------------------------------------------------------|
E|---5-5-5-5-5-5-5-5-0-0-0-2-3-5-3-2-2-2-2-2-2-2-2-2-0h2-2-2-2-2-2-2----|

G|------------------------------------------------------------|
D|------------------------------------------------------------|
A|------------------------------------------------------------|
E|---5-5-5-5-5-5-5-5-7-7-7-7-7-7-7-7-9-9-9-7h9-9-9-7h9-9-9----|

G|--------------------------------------------------------------|
D|--------------------------------------------------------------|
A|---7-7-7-----------------------7-7-7--------------------------|
E|---------7-7-7-5h7-7-7-5h7-7-7-------9-9-9-7h9-9-9-7h9-9-9----|

G|----------------------------------|
D|----------------------------------|
A|---7-7-7--------------------------|
E|---------7-7-7-5h7-7-7-5h7-7-7----|

Verse                                                  Repeat x3
G|--------------------------------------------------------------|
D|o------------------------------------------------------------o|
A|o--7-7-7-----------------------7-7-7-------------------------o|
E|---------9-9-9-7h9-9-9-7h9-9-9-------7-7-7-5h7-7-7-5h7-7-7----|

Chorus
G|---------------------------------------------------------------------------|
D|---------------------------------------------------------------------------|
A|----------------------------------------7-7-7-7-5h7-7-7-5h7-7-7-5h7-7-7----|
E|---7\2-2-2-2-0h2-2-2-3h5-5-5-3h5-5-5/12\-----------------------------------|

G|----------------------------------------------------------------------|
D|----------------------------------------------------------------------|
A|----------------------------------------------------------------------|
E|---7-7-7-7-7-7-7-7-8-8-8-8-8-8-8-8-9-9-9-9-9-9-9-9-7-7-7-7-7-7-7-7----|

G|----------------------------------------------------------------------|
D|----------------------------------------------------------------------|
A|----------------------------------------------------------------------|
E|---5-5-5-5-5-5-5-5-0-0-0-2-3-5-3-2-2-2-2-2-2-2-2-2-0h2-2-2-2-2-2-2----|

G|---------------------------------------------------------|
D|---------------------------------------------------------|
A|---------------------------------------------------------|
E|---5-5-5-5-5-5-5-5-7-7-7-7-7-7-7-7-9-------------/15\----|

Guitar Solo                            Repeat x4
G|----------------------------------------------|
D|o--------------------------------------------o|
A|o--------------8-----------------------------o|
E|----8h10-10-10---10-10-10-8h10-10-10-10-8-----|

G|----------------------------------------------|
D|o--------------------------------------------o|
A|o--------------9-----------------------------o|
E|----9h11-11-11---11-11-11-9h11-11-11-11-9-----|

G|-----------------------------------------------------------------|
D|-----------------------------------------------------------------|
A|---------------10------------------------------------------------|
E|---10h12-12-12----12-12-12-10h12-12-12-10-12---13---14---15/\----|

Chorus
G|---------------------------------------------------------------------|
D|---------------------------------------------------------------------|
A|---------------------------------------------------------------------|
E|---9-9-9-9-9-9-9-9-7-7-7-7-7-7-7-7-5-5-5-5-5-5-5-5-0-2-3-4-5-4-3-2---|

G|---------------------------------------------------------------------|
D|---------------------------------------------------------------------|
A|-----------------------------------------------------/7-7-7-7-7-7----|
E|---9-9-9-9-9-9-9-9-7-7-7-7-7-7-7-7-5-5-5-5-5-5-5-5-0-----------------|

G|---------------------------------------------------------------------|
D|---------------------------------------------------------------------|
A|---------------------------------------------------------------------|
E|---9-9-9-9-9-9-9-9-7-7-7-7-7-7-7-7-5-5-5-5-5-5-5-5-0-0-0-2-3-5-3-2---|

G|---------------------------------------------------------------------|
D|---------------------------------------------------------------------|
A|---------------------------------------------------------------------|
E|---2-2-2-2-2-2-2-2-0h2-2-2-2-2-2-2-5-5-5-5-5-5-5-5-7-7-7-7-7-7-7-7---|

G|--------------------------------------------------------|
D|--------------------------------------------------------|
A|-------------------------7-7-7--------------------------|
E|---9-9-9-7h9-9-9-7h9-9-9-------7-7-7-5h7-7-7-5h7-7-7----|

G|----------------------------------------------------------------------|
D|----------------------------------------------------------------------|
A|---7-7-7-----------------------7-7-7-------------------------7-7-7----|
E|----------9-9-9-7h9-9-9-7h9-9-9-------7-7-7-5h7-7-7-5h7-7-7-----------|

Not 100% on the solo but it's close.
Please rate or comment........

| /  slide up
| \  slide down
| h  hammer-on
| p  pull-off
| ~  vibrato
| +  harmonic
| x  Mute note
===============================================================================

comments
We did not receive enough feedback on this tab! Please rate:
print report bad tab
1 2 3 4 5
I want to post or [tab]
guest
You may want to rate the tab now too:
select rating
Please do not post tabs as comments. Select "correction" instead!