Oops, an error
Loading. Please wait.

Badstreet Usa tab

37 views 1 this week
no commentswrite comment
1 2 3 4 5
3 more votes to show rating
add to favorites
×
Save as Personal and add changes to this tab that will be seen only by you. Learn more ›
×
You can save this tab as Personal to edit and correct it or add notes. All changes will be seen only by you. Learn more »
launch autoscroll
font size
0
reset
how to read this tab
guitar tuner
edit
Autoscroll
slow
fast
+/-
esc
set tempo
stop
Author
Difficulty
[Intro]
   

e|---------------------------------------------------------------------------|
B|-x-x-x-x-x-----------------------------------------------------------------|
G|-x-x-x-x-x-----------------------------------------------------------------|
D|-x-x-x-x-x--9--7---7/9-7/9------------9--7---7/9--7/9----------------------|
A|------------7--5---5/7-5/7------------7--5---5/7--5/7----------------------|
E|----------------------------0-3b-0---------------------0-3b-3b-0-----------|

e|---------------------------------------------------------------------------|
B|---------------------------------------------------------------------------|
G|---------------------------------------------------------------------------|
D|-9--7---7/9-7/9---9--7-----------------------------------------------------|
A|-7--5---5/7-5/7---7--5---6-6-7-7-8-8-9-------------------------------------|
E|-------------------------4-4-5-5-6-6-7-------------------------------------|

[Verse]

      A
I'm going to tell you a story
                             B  A
About a place you don't wanna be
A
This ain't no home sweet home
                     B  A
It's home sweet misery
A
We knew when we got here
                        B  A
They'd try to put us away
A
But when they seen us walk down the street

They ran the other way

(Riff)
e|---------------------------------------------------------------------------|
B|---------------------------------------------------------------------------|
G|---------------------------------------------------------------------------|
D|---------------------------------------------------------------------------|
A|---------------------------------------------------------------------------|
E|-0-3b-3b-0-----------------------------------------------------------------|

[Chorus]

E     D    D  E  D  E          
Badstreet, Atlanta, GA
E       D     D  E  D  E
Baddest street in the whole USA
E       D   D  E  D  E
Badstreet, nasty and hot
N.C.
The further down the block you went the badder it got

(Riff)

[Verse]
 
A                                              B  A
Street is a jumping, tonight there'll be a brawl
A                                              B  A
Old Lady McDuffie she done give the cops a call
A
She might as call the Army 
                            B A
Or the United States Marines
A
'Cause can't nobody handle this Badstreet scene

(Riff)

[Chorus]

E     D    D  E  D  E          
Badstreet, Atlanta, GA
E       D     D  E  D  E
Baddest street in the whole USA
E       D   D  E  D  E
Badstreet, nasty and hot
N.C.
The further down the block you went the badder it got

[Verse]

A
Street punks came walking  
                              B  A
They thought that they were hot
A          
They thought that they were nasty 
                                B  A
And could make it down on our block
A                                                     B  A
But I'll never forget hearing that ambulance driver say
A
"Someone should have told those boys 'bout Badstreet USA."


N.C.
So, don't you come looking on this side of toe 
'Cause this is where the Freebirds live and everything's going down
If you don't know by now, we always get our way
That's the way it is down here on Badstreet USA

E     D    D  E  D  E          
Badstreet, Atlanta, GA
E       D     D  E  D  E
Baddest street in the whole USA
E       D   D  E  D  E
Badstreet, nasty and hot
N.C.
The further down the block you went the badder it got

E     D    D  E  D  E          
Badstreet, Atlanta, GA
E       D     D  E  D  E
Baddest street in the whole USA
E       D   D  E  D  E
Badstreet, nasty and hot
N.C.
The further down the block you went the badder it got



            
            
Suggest correction
Creating personal tab
Creating personal tab
You can edit any tab online and save it as your Personal.

You can edit, replace or remove any tab part or add personal notes – all changes will be seen only by you.

Personal tabs can be accessed anytime from any device, even offline.
Learn more »
Give kudos to tab author, rate the tab!
1 2 3 4 5
comments
print report bad tab
guest
You may want to rate the tab now too:
select rating
Wanna post a correction for this tab? Suggest correction