Oops, an error
Loading. Please wait.

A La Luz Tab

11 views 1 this week
no commentswrite comment
1 2 3 4 5
3 more votes to show rating
add to favorites
launch autoscroll
font size
0
reset
how to read this tab
guitar tuner
×
Best way to learn
"A La Luz"
Autoscroll
slow
fast
+/-
esc
set tempo
stop
E-0------------2------------3------------------------------
A-----------------------------2------------2----0----------
D----4-------------2---------------------------------------
g------0---------2-----------------------------------------
b--------3-----3-------3----------3--0-2-3-3-----2-h-3-----
e----------0----------0---------3------------0-------------


E-0------------2------------3------------------------------
A-----------------------------2------------2----1----------
D----4-------------2---------------------------------------
g------0---------2-----------------------------------------
b--------3-----3-------3----------3--0-2-3-3----2----------
e----------0----------0---------3------------0----2--------


Bm                F#m
la sangre de jesus  tiene el poder
     G           A               D   D7
para restaurar al hombre y a la mujer
Bm                     F#m
es la puerta que hoy se  abre para ti
       G          A                   D     D7
es medicina que remedia cuarquier condicion


G              A7
 no lo pienses mas
       F#m          Bm
no enduresca tu corazon
          e---3-4-3-4-3-4-3-
puedes librarte del tormento
        A7
que te amarga

         G               A7          D    D7
SI PRONUNCIARAS HOY EL NOMBRRE DEL MAESTRO
      G       A7         D       D7
ROMPERIAS ATADURAS DEL CINIESTRO
         G              F#m       Bm
SI PROMUNCIARAS HOY EL NOMBRE DE JESUS
   Bm/A    Em
EL DE LA CRUZ

      F#m             Bm )        D/C#
HOY SALDRIAS DE TINIEBLAS(3) A LA LUZ


 Bm            F#m/Bb
dale al corazon una oportunidad
  C          D               G
cierra todas las heridas com unguento de paz
    G#m7       C#7
para que andar buscando
   F#m7       B7
por el mundo divagando
        G         Em7           A 4sus A   A7
si la felicidad se halla en su presencia.

CORO


FINAL
Bbmaj7 Cadd2 D C/E D E-6-3- Dm
d-----3---
e-6-3---0-  D


Tonos
F#m7/Bb    G#m7      C#7      Bbmaj7    Cadd2   C/E
Ex          4         x          x        x      x
A1          x         4          1        3      x
Dx          4         3          3        2      2
g2          4         4          2        0      0
b2          3         2          3        1      1
e2          x         x          1        3      3
Suggest correction
Give kudos to tab author, rate the tab!
1 2 3 4 5
comments
print report bad tab
guest
You may want to rate the tab now too:
select rating
Wanna post a correction for this tab? Suggest correction