Oops, an error
Loading. Please wait.

Atare Mis Manos Tab

75 views 1 this week
no commentswrite comment
1 2 3 4 5
3 more votes to show rating
add to favorites
×
Save as Personal and add changes to this tab that will be seen only by you. Learn more ›
×
You can save this tab as Personal to edit and correct it or add notes. All changes will be seen only by you. Learn more »
save as personal
new!
launch autoscroll
font size
0
reset
how to read this tab
guitar tuner
Autoscroll
slow
fast
+/-
esc
set tempo
stop
Aqui les va la excelente cancion de Michael 
con notas del acompañamiento.
En esta parte la cancion sube medio tono para
luego bajar a sol, espero que les guste.

SoLO de GuitarrA:
Efecto-Distorcion:

   03:51
     D#                                 F
e|-------------------------------------------------------------|
B|-------------------------------------------------------------|
G|-----------------12--15--15---14s5---12s14--15--14-----------|
D|----------13-15-------------------------------------15--15---|
A|---13-15-----------------------------------------------------|
E|-------------------------------------------------------------|

               D
e|-----------------------14---15---17s18---18---20-20---|
B|-------------15--17-----------------------------------|
G|----------14------------------------------------------|
D|---16-17----------------------------------------------|
A|------------------------------------------------------|
E|------------------------------------------------------|

                                       Gm
e|------------14.--15.--17.--18.--17.--20---18--18--17---18--|
B|---15.--17.------------------------------------------------|
G|-----------------------------------------------------------|
D|-----------------------------------------------------------|
A|-----------------------------------------------------------|
E|-----------------------------------------------------------|

                     C                                  Cm
e|----18---17---15------15---15--------17s18---17---15-----15---15--------|
B|------------------17v---------------------------------16----------------|
G|-------------------------------17--17----------------------------17-17--|
D|------------------------------------------------------------------------|
A|------------------------------------------------------------------------|
E|------------------------------------------------------------------------|

                                 04:16
                         D2
e|---17s18---18--17--15--17-------22---||
B|-------------------------------------||
G|-------------------------------------||
D|-------------------------------------||
A|-------------------------------------||
E|-------------------------------------||

los puntos junto a los numeros significa que son toques rapidos
practiquenlos primero lentos y luego le suben le velociad..

cualquier duda o comentario o sugerencia por favor a
johnwiston_87@

Chaoooooooooooooo!!!!!!!!!!!!!!!!!!!
Suggest correction
Give kudos to tab author, rate the tab!
1 2 3 4 5
comments
print report bad tab
guest
Wanna post a correction for this tab? Suggest correction