Oops, an error
Loading. Please wait.

Atare Mis Manos Chords

version 2
version 2

Whole song

11 views 1 this week
no commentswrite comment
1 2 3 4 5
3 more votes to show rating
add to favorites
launch autoscroll
font size
0
reset
transpose
0
reset
simplify chords
display chords
guitar tuner
×
Best way to learn
"Atare Mis Manos"
Autoscroll
slow
fast
+/-
esc
set tempo
stop
Introducción(A toda la Introducción se aplica Palm Mute(P.M)):
   D    Em         C9     D
e-----------------------------------
B----3-----3-----------3------3-----
G---2-----0-----------0------2------
D--0-----------2p0--------0---------
A-------------------3---------------
E-------0---------------------------

   D    Em         C9     D
                         RB(I)
e-------------------------2---------
B----3-----3-----------3--3---------
G---2-----0-----------0---2---------
D--0-----------2p0--------0---------
A-------------------3---------------
E-------0---------------------------


Ritmos:
R1: [RB(I]  RB(I) RA RB(I) RA)
Suggest correction
Give kudos to tab author, rate the tab!
1 2 3 4 5
comments
print report bad tab
guest
You may want to rate the tab now too:
select rating
Wanna post a correction for this tab? Suggest correction