Oops, an error
Loading. Please wait.

Instrumento De Tu Paz Tab

77 views 1 this week
no commentswrite comment
1 2 3 4 5
3 more votes to show rating
add to favorites
launch autoscroll
font size
0
reset
how to read this tab
guitar tuner
Autoscroll
slow
fast
+/-
esc
set tempo
stop
Los punteos en esta canción se hacen con dos guitarras creo que
una es acústica y la otra eléctrica escuchen bien la canción
para diferenciar cual de los punteos corresponde a cada guitarra.
Con la colaboración de David Ramírez (David_rodar@

*significa que esa parte se va repitiendo constantemente en la
introducción e intermedios por una de las guitarras espero me
entiendan.

INTRO
Fm, D# 4


E--------------------|---4-4-3-----4-6--------------------
B--------------------|--------4h6-----4/6-----4-4-6------
G-------------1------|--------------------3h5-------3/5--
D-------1-1/3---1/3--|*----------------------------------
A---1h3--------------|-----------------------------------
E--------------------|-----------------------------------

E-------------------------------------------------------
B--------9--9-8-11p9------------------------------------
G---1/6-10-10-8------10h13-13-13-13---------------------
D-----------------------------------13-13-13-13-13/15---
A-------------------------------------------------------
E-------------------------------------------------------

E-------------------------------------------------------
B--------9--9-8-----------------------------------------
G---1/6-10-10-8-8/10-13-15------------------------------
D--------------------------15p13-------13h15------------
A--------------------------------13-15-------13/15------
E-------------------------------------------------------

E----------------
B--------9--9-8--
G---1/6-10-10-8--
D----------------
A----------------
E----------------


G#        C#           G#
LLENAME SEÃ?OR CON TU ESPIRITU
 Csus     C7          Fm
AYUDAME A REFLEJAR TU ROSTRO
   C#                   Fm
TE PIDO FUERZAS Y SABIDURIA
              D#    DSUS, D#
PARA SEGUIR LUCHANDO

Fm         C#         G#
SE TU MI CAMINO Y LUMBRERA
Csus          C7        Fm
GUARDAME DE ESPINAS Y LEONES
  C#                     Fm
ENSEÃ?AME A MIRAR COMO TU MIRAS
             D#    Dsus, D#
LUZ DE MISERICORDIA

   Fm             C#          G#
CONSUELAME CUANDO FALLEN MIS AMADOS
   Csus            C7           Fm
CONSUELALES CUANDO SEA YO QUIEN FALLE
    C#                            Fm
QUE VIVA EN MI LA PACIENCIA y TOLERANCIA
                  D#    C#, Cm
CUANDO HAYAN DISENCIONES

           C#             D#
¡OH! ALFARERO, HAZME DE NUEVO
      Csus  C7     Fm
SI ME ROMPO EN TUS MANOS
              C#                 D#          G#
MOLDEAME ¡OH! DIOS, PUES NO TE QUIERO, DEFRAUDAR
¡OH! SEÃ?OR,

               C#             D#
SOY CARNE Y HUESO, BARRO IMPERFECTO
     Csus    C7   Fm
DALE VUELTAS A LA RUEDA
           C#          D#
Y FORMA DE MI UN INSTRUMENTO
         A#m         D#
FORMA DE MI UN INSTRUMENTO
         A#m         D#           Fm, D#, Fm, D#
FORMA DE MI UN INSTRUMENTO, DE TU PAZ


E--------------------|-----------------------------------
B--------------------|--------9--9-8------------------9--
G-------------1------|---1/6-10-10-8-1h3p1----1---6/8----
D-------1-1/3---1/3--|*--------------------3-1--3--------
A---1h3--------------|-----------------------------------
E--------------------|-----------------------------------

(misma secuencia de acordes)
REFRENA ESA LENGUA MALCRIADA
QUE NO SALGAN DE ELLA COMENTARIOS TORPES
QUE PROCURE SIEMPRE VENDAR LASTIMADURAS
PRONUNCIANDO BENDICIONES

COME EN EL MEDIO DEL DESIERTO
PARA HACER CANTIMPLORA DE TU NOMBRE
OBEDECER TU PALABRA ES LO QUE QUIERO
QUIERO SER UN MEJOR HOMBRE

¡OH! ALFARERO, HAZME DE NUEVO
SI ME ROMPO EN TUS MANOS
MOLDEAME ¡OH! DIOS, PUES NO TE QUIERO, DEFRAUDAR
¡OH! SEÃ?OR, SOY CARNE Y HUESO, BARRO IMPERFECTO
DALE VUELTAS A LA RUEDA
Y FORMA DE MI UN INSTRUMENTO
FORMA DE MI UN INSTRUMENTO
FORMA DE MI UN INSTRUMENTO, DE TU PAZ

E--------------------|-----------------------------------
B--------------------|-----------------------------------
G-------------1------|-----------------------------------
D-------1-1/3---1/3--|*--1h3-1-3-1h3-1-3-8b-8-6----------
A---1h3--------------|--------------------------6-8------
E--------------------|-----------------------------------


Y FORMA DE MI UN INSTRUMENTO
FORMA DE MI UN INSTRUMENTO
FORMA DE MI UN INSTRUMENTO, DE TU PAZ

E---------------------4-----------4-4-6-----------------
B--------9--9-8-----4---4/6-6p4-6-------4/6-------------
G---1/6-10-10-8-1h3-------------------------------------
D-------------------------------------------------------
A-------------------------------------------------------
E-------------------------------------------------------

E---------11-------11v---11-11/13-13-16-----------------
B-12b-12b----11-13-----9----------------9/11------------
G-------------------------------------------------------
D-------------------------------------------------------
A-------------------------------------------------------
E-------------------------------------------------------

E-------------------------------------------------------
B---11h13p11p9h11p9-------------------------------------
G-------------------10p8-8h10---------------------------
D-----------------------------8h10p8--------------------
A-------------------------------------------------------
E-------------------------------------------------------

E-------------------11-------11-13/15-16p15v-16p15v-----
B----------11-11/13----13-13----------------------------
G----10-13----------------------------------------------
D-13----------------------------------------------------
A-------------------------------------------------------
E-------------------------------------------------------

Esta es una canción muy bonita y no esta del todo difícil solo
pónganle ganas, los punteos pueden ser que no estén del todo
igual pero suenan muy bien si encuentran algún error envíenme
un e-mail con una corrección o un comentario se los agradeceré.
Saludos al ministerio musical de la iglesia Â?El Buen PastorÂ?
en Tegucigalpa, Honduras.


Csus     C7

E|3|    E|3|
B|6|    B|5|
G|5|    G|3|
D|5|    D|5|
A|3|    A|3|
E|3|    E|3|
Suggest correction
Give kudos to tab author, rate the tab!
1 2 3 4 5
comments
print report bad tab
guest
Wanna post a correction for this tab? Suggest correction