Oops, an error
Loading. Please wait.

Tirad La Red Chords

39 views 1 this week
no commentswrite comment
1 2 3 4 5
2 more votes to show rating
add to favorites
launch autoscroll
font size
0
reset
transpose
0
reset
simplify chords
display chords
guitar tuner
×
Best way to learn
"Tirad La Red"
Autoscroll
slow
fast
+/-
esc
set tempo
stop
Letra simple y muy profunda, espero que sea de bendicion.

Tirad la red
(Intro)
---------------------------------------------------------------------
----2_3-1-0---------3---------------5----------------5---------------
-------------------5---5---5-------7---7----7-------4---4----4-------
----2_3-1-0------5-------5-------4--------4-------0-------0----------
---------------0----------------5---------------2--------------------
---------------------------------------------------------------------


-----------------------------------5---------------------------------
---------5-------------------3-----3---------------------------------
--------4---4----4----------5------0---------------------------------
-------0------0------------5-------5---------------------------------
--------------------------0------------------------------------------
----0----------------------------------------------------------------

          G                            D  D2
TIRAD LA RED                ES LO QUE QUIERO
B         Cadd              Asus    A      D     D2
Y YO ME ENCARGARE           DE CONQUISTAR LOS MARES
          G                            D   D2
TIRAD LA RED                LLEVAD MI PALABRA
  B                     Cadd            Asus A          D
PORQUE HAY PECES QUE SE MUEREN DE SED   EN MEDIO DE LAS AGUAS

        G                                    D D2
TIRAD LA RED                HACEDLO EN MI NOMBRE
B              Cadd9           Asus  A      D   D2
Y YA VERAS QUE HARE DE TI   UN PESCADOR DE HOMBRES
          G   D                Cadd9      D   D2
TIRAD LA RED, SIMON!        TIRAD LA RED, SIMON!

        C4         D2   D/F    G
Y NO TE AFERRES A CONCEPTOS,  MARINERO
G/B     C4        D2          D/F   G
NO TE QUEDES A LA ORILLA       DEL MAR
G/B        C4     D2                 G/B    EM7
LOS PECES NUNCA SALTARAN      A LA BARCA CAPITAN
        Cadd9    D2             B         EM7
HAY QUE ZARPAR Y LANZAR       NUESTRAS REDES AL MAR
      Cadd9     D2              B           EM7
LA DIFERENCIA QUE SE VEA      CONTRA VIENTO Y MAREA
         Cadd9     D5    G/D    Gb/D   EM7
//HAY QUE TIRAR NUETRAS REDES AL MAR, SIMON//

IGLESIA TU ERES SIMON///
Suggest correction
Give kudos to tab author, rate the tab!
1 2 3 4 5
comments
print report bad tab
guest
You may want to rate the tab now too:
select rating
Wanna post a correction for this tab? Suggest correction