Oops, an error
Loading. Please wait.

More Than Youll Ever Know tab

version 2
version 2

Whole song

5,684 views 9 this week
3 commentsread comments
1 2 3 4 5
1 last vote to show rating
add to favorites
×
Save as Personal and add changes to this tab that will be seen only by you. Learn more ›
×
You can save this tab as Personal to edit and correct it or add notes. All changes will be seen only by you. Learn more »
launch autoscroll
font size
0
reset
how to read this tab
guitar tuner
edit
Autoscroll
slow
fast
+/-
esc
set tempo
stop
Author
MORE THAN YOU'LL EVER KNOW - MICHAEL RUFF

Tabbed by:Jam “string buster”
Email:wanderlei_jam@yahoo.com
Tuning:STANDARD

Intro: Harmonics
For best results, sabayan mo ung tipa sa kanta, kaw na bahala sa plucking.


e|----------------(12)-----|---------------(13)------------------(12)--------------------------|
B|--(12)-------------------|-----------(12)-----------------(12)-------------------------------|
G|-------------------------|-----------------------(7)-----------------------------------------|
D|----------(7)------------|----(7)------------------------------------------------------------|
A|---0------------------0--|------------------------0-------------------0----------------------|
E|-------------------------|-------------------------------------------------------------------|


e|----------------(12)-----|---------------(13)------------------------------------------------|
B|--(12)-------------------|-----------(12)----------------------------------------------------|
G|-------------------------|-----------------------(7)-----------------------------------------|
D|----------(7)------------|----(7)------------------------------------------------------------|
A|---0------------------0--|------------------------0------------------------------------------|
E|-------------------------|-------------------------------------------------------------------|

IST VERSE					      h.
e|-0-------------------1------------------------------------------------0---------0-----|
B|-1----3----1------1-----1---------------0--0/1-----------------1-------1---3-----3----|
G|-2-------------2----------2---2-----0--------------0----------------0---------0-------|
D|-------------3---------------------------------------3----0---------------------------|
A|------------------------------------3------------------ 5------------------3----------|
E|------3----1--------------------------------------------------------------------------|
   TAKE MY  HANDS              WE’LL WALK A-WHILE   WE’LL TALK A-WHILE

									 Sl.
e|-0-------------------1----------------------------------0-----------------------------|
B|-1----3----1------1-----1------0--------1-------3----3-----3/5------------------------|
G|-2-------------2----------2-------0--------0-------0----------------------------------|
D|-------------3-----------------------0-------0----------------------------------------|
A|----------------------------------------0-------3----3--------------------------------|
E|------3----1-------------------3------------------------------------------------------|
   FEEL MY LOVE                 ALWAYS   THERE    BESIDE   YOU


e|-0-------------------1----------------------------------------------------------------|
B|-1----3----1------1-----1---------------0--1------------------3---0-------------------|
G|-2-------------2----------2---2-----0-----------0---2---------------------------------|
D|-------------3--------------------------------------0---------------------------------|
A|------------------------------------3-------------------------------------------------|
E|------3----1--------------------------------------------------------------------------|
    BE THE ONE                  I   KNOW YOU TELL ME  E______VERYTHING


       p.       p.    		 				         h.
e|------------------------------0--------------------------------0-----------0----------|
B|----1/0------------------------0----------------------------0-----0/2----2------------|
G|-------------2/0-----------0----0-----1-1---------2----4---------------2--------------|
D|-------------------------2------------------------------------------------------------|
A|---------2-------------2------------------------------------0-----0-------------------|
E|-3----------------0-------------------0-0---------2----4------------------------------|
    YOU ARE THE ONE                   I CHERISH    MORE THAN   ANYTHING



CHORUS:
    				  h.		          h.    p.
e|----------------1----0-------------------------------------------------0-----|
B|--2---3---5-----1---------0/1------------------------------------3---3---2---|
G|----------------2--------------0--------0------0/2---2/0-------0---0---------|
D|-------------------------------------------0-----------------2---------------|
A|--0---4---6---------------------------2--------------------3-----------------|
E|------------------------------------3----------------------------------------|
    I LOVE YOU   MORE THAN YOU’LL E______________VER   KNOW


				 h.		       sl.   sl.
e|----------------1----0----------------------3/5---5/3------------------0------|
B|--2---3---5-----1--------0/1-------------------------------------3------------|
G|----------------2---------------0---------0--------------------0---0------3---|
D|----------------------------------------0--------------------2-------2--------|
A|--0---4---6---------------------------2--------------------3------------------|
E|------------------------------------3-----------------------------------------|
    I LOVE YOU   MORE THAN YOU’LL E___________VER    SEE


e|----------------1-----0---------------0-------------------0-------------------|
B|--2---3---5-----1---------------1----------3--------3-------3-----------------|
G|----------------2---------------------------------2------2--------------------|
D------------------------------------------------------------------- -----------|
A|--0---4---6------------------------3------------0-----------------------------|
E|------------------------------------------------------------------------------|
    MORE THAN MY  HEART COULD     E____VER   SHOW

                                                               sl.
e|----------------1----0---------------------0--------------0--------------/12)-|
B|--2---3---5-----1--------3-----1----1---------------0---0---------------------|
G|----------------2---------------------0-----------2---2-----1-----------------|
D|------------------------------------------------------------------------------|
A|--0---4---6-----------------------3-------------2-----------------------------|
E|------------------------------------------------------------------------------|
    I LOVE YOU  MORE THAN YOU’LL  E____VER   KNOW


(Play before 2nd verse)
	  sl.	  p. h.
e|---------------------------------------------------------------------------------|
B|------2-3--3/5-----3/2/3---------------------------------------------------------|
G|---------------------------------------------------------------------------------|
D|---------------------------------------------------------------------------------|
A|---0-------0-----------0---------------------------------------------------------|
E|---------------------------------------------------------------------------------|


2ND VERSE
e|-0-------------------1------------------------------------------------0---------0---|
B|-1----3----1------1-----1---------------0--0/1-----------------1-------1---3-----3--|
G|-2-------------2----------2---2-----0--------------0----------------0---------0-----|
D|-------------3---------------------------------------3----0-------------------------|
A|------------------------------------3------------------ 5------------------3--------|
E|-----3----1-------------------------------------------------------------------------|
        THINK OF        ME                                              AND       NOW  
  I’LL         BELIEVED IN    YOU

	 p.	sl.
e|-----0-------------------1----------------------------------0-------------------------|
B|--0--1----3-3/1--------1----1-----1--0----------1------3--3---3/5---------------------|
G|-----2---------------2---------2-------0----------0------0----------------------------|
D|-------------------3---------------------0----------0---------------------------------|
A|------------------------------------------------0------3--3---------------------------|
E|-----------------1-------------------3------------------------------------------------|
     THERE ALWAYS          BE                                                       THIS 
 TIME       TOGE____THER


									 h.
e|----0-------3--------1------------------------------0---------------------------------|
B|-3------------1-----1------------0---1------------0---0---0/2-------------------------|
G|------------------2--------0--------------------2-------------------------------------|
D|----------------------------------------------0---------------------------------------|
A|----0-------------------3-------------------------------------------------------------|
E|-------3--1-------------------------------------------------------3-------------------|
     WITH EVERY        TEARS                     A   LOVE      SO        STRONG          
                            NO WORDS

    p.	p.	p.
e|--------------------------------0--------------------------------0-----------0----------|
B|-3/0-----------------------------0----------------------------0-----0/2----2------------|
G|---------------2/0-----------0----0-----1-1---------2----4---------------2--------------|
D|---------------------------2------------------------------------------------------------|
A|---------2---------------2------------------------------------0-----0-------------------|
E|-------------------0--------------------0-0---------2----4------------------------------|
   COULD    EVER SAY                    A LOVE TO     LAST FOR__EVER


CHORUS:
    				  h.		          h.    p.
e|----------------1----0-------------------------------------------------0-----|
B|--2---3---5-----1---------0/1------------------------------------3---3---2---|
G|----------------2--------------0--------0------0/2---2/0-------0---0---------|
D|-------------------------------------------0-----------------2---------------|
A|--0---4---6---------------------------2--------------------3-----------------|
E|------------------------------------3----------------------------------------|
    I LOVE YOU   MORE THAN YOU’LL E______________VER   KNOW


				 h.		       sl.   sl.
e|----------------1----0----------------------3/5---5/3------------------0------|
B|--2---3---5-----1--------0/1-------------------------------------3------------|
G|----------------2---------------0---------0--------------------0---0------3---|
D|----------------------------------------0--------------------2-------2--------|
A|--0---4---6---------------------------2--------------------3------------------|
E|------------------------------------3-----------------------------------------|
    I LOVE YOU   MORE THAN YOU’LL E___________VER    SEE


e|----------------1-----0---------------0-------------------0-------------------|
B|--2---3---5-----1---------------1----------3--------3-------3-----------------|
G|----------------2---------------------------------2------2--------------------|
D------------------------------------------------------------------- -----------|
A|--0---4---6------------------------3------------0-----------------------------|
E|------------------------------------------------------------------------------|
    MORE THAN MY  HEART COULD     E____VER   SHOW

                                                               sl.
e|----------------1----0---------------------0--------------0--------------/12)-|
B|--2---3---5-----1--------3-----1----1---------------0---0---------------------|
G|----------------2---------------------0-----------2---2-----1-----------------|
D|------------------------------------------------------------------------------|
A|--0---4---6-----------------------3-------------2-----------------------------|
E|------------------------------------------------------------------------------|
    I LOVE YOU  MORE THAN YOU’LL  E____VER   KNOW

PLAY BEFORE 3RD VERSE

             p.h.                      h.	h.	 h.	h.
e|------------------------------------3/5---3---3-----0----------0------------0/2---0—(12)--|
B|------2-3--3/5---------------3------------3---3-----1---1-1/3----3--1/3--3--------2-------|
G|------------------5-------5----5-4---------------------------------------2--------2-------|
D|------------------------3-----------------------------------------------------------------|
A|---0-------0------5---5-------------------3---3-----3--------------------0--------0---0---|
E|------------------------------------------------------------------------------------------|

PLAY BEFORE 3RD VERSE

             p.h.                      h.	h.	 h.	h.
e|------------------------------------3/5---3---3-----0----------0------------0/2---0—(12)--|
B|------2-3--3/5---------------3------------3---3-----1---1-1/3----3--1/3--3--------2-------|
G|------------------5-------5----5-4---------------------------------------2--------2-------|
D|------------------------3-----------------------------------------------------------------|
A|---0-------0------5---5-------------------3---3-----3--------------------0--------0---0---|
E|------------------------------------------------------------------------------------------|


3RD VERSE					      h.
e|-0-------------------1------------------------------------------------0---------0-----|
B|-1----3----1------1-----1---------------0--0/1-----------------1-------1---3-----3----|
G|-2-------------2----------2---2-----0--------------0----------------0---------0-------|
D|-------------3---------------------------------------3----0---------------------------|
A|------------------------------------3------------------ 5------------------3----------|
E|------3----1--------------------------------------------------------------------------|
   TAKE MY  HANDS              WE’LL WALK A-WHILE   WE’LL TALK A-WHILE

									 Sl.
e|-0-------------------1----------------------------------0-----------------------------|
B|-1----3----1------1-----1------0--------1-------3----3-----3/5------------------------|
G|-2-------------2----------2-------0--------0-------0----------------------------------|
D|-------------3-----------------------0-------0----------------------------------------|
A|----------------------------------------0-------3----3--------------------------------|
E|------3----1-------------------3------------------------------------------------------|
   FEEL MY LOVE                 ALWAYS   THERE    BESIDE   YOU


e|-0-------------------1----------------------------------------------------------------|
B|-1----3----1------1-----1---------------0--1------------------3---0-------------------|
G|-2-------------2----------2---2-----0-----------0---2---------------------------------|
D|-------------3--------------------------------------0---------------------------------|
A|------------------------------------3-------------------------------------------------|
E|------3----1--------------------------------------------------------------------------|
    BE THE ONE                  I   KNOW YOU TELL ME  E______VERYTHING


       p.       p.    		 				         h.
e|-----------------------------(12)------------------------------0------------0---------|
B|----1/0----------------------(12)---------------------------0-----0/2-----2-----------|
G|-------------2/0-------------(12)-----1-1---------2----4-----------------2------------|
D|-----------------------------(12)-----------------------------------------------------|
A|---------2--------------------------------------------------0-----0-------------------|
E|-3----------------0-------------------0-0---------2----4------------------------------|
    YOU ARE THE ONE                   I CHERISH    MORE THAN   ANYTHING

OUTRO:

e|----------------(12)-----|---------------(13)------------------(12)--------------------------|
B|--(12)-------------------|-----------(12)----------------------------------------------------|
G|-------------------------|-----------------------(7)-----------------------------------------|
D|----------(7)------------|----(7)------------------------------------------------------------|
A|---0------------------0--|------------------------0--------------0---------------------------|
E|-------------------------|-------------------------------------------------------------------|

Enjoy…
	Just email ur comment tnx
	Tiring kc mag edit,bka may n mis ako..

            
            
Suggest correction
Creating personal tab
Creating personal tab
You can edit any tab online and save it as your Personal.

You can edit, replace or remove any tab part or add personal notes – all changes will be seen only by you.

Personal tabs can be accessed anytime from any device, even offline.
Learn more »
Give kudos to tab author, rate the tab!
1 2 3 4 5
comments
print report bad tab
3 comments total.
0 reply
arjonah 10 Aug 19, 2007 07:50 AM

pare galing mong mag tab..pwed kabah gumawa ng tabs sa maybe by king...

0 reply
rock_\MEr\ 10 Jan 17, 2010 08:05 PM

dud's aztig tong tab mo..
pkitab nman ung I BELIEVE by jimmy bondoc....
puro kulang kc ngtab nun..
tnx sa tabs

0 reply
andrewsamsonjuarez 10 Jul 14, 2015 03:33 AM

Dude salamat sa tabs na to ^_^

guest
You may want to rate the tab now too:
select rating
Wanna post a correction for this tab? Suggest correction