Oops, an error
Loading. Please wait.

In The Sun Bass Tab

182 views 1 this week
no commentswrite comment
1 2 3 4 5
please rate
add to favorites
launch autoscroll
font size
0
reset
guitar tuner
Tab Pro tools
  • play this tab
  • loop segment
  • change instrument
  • show fretboard
  • metronome
×
Best way to learn
"In The Sun"
Autoscroll
slow
fast
+/-
esc
set tempo
stop
Contributor
Difficulty
novice
Michael Stipe & Coldplay – In The Sun (Original song by Joseph Arthur)
Bass tab by Alex Acero
Tuning – Standard

The bass starts after “…asking for sympathy”

Intro

G|------------------|
D|------------------|
A|-----6~-----------|
E|3~--------6~---5~-| x2


Chorus 1

G|------------------|
D|------------------|
A|-----6~-----------|
E|3~--------6~---5~-| x1

G|----------------------|
D|----------------------|
A|-----6~---------------|
E|3~--------6~---5~/7\\-| x1 (slide into Verse 1)


Verse 1

G|-----------------------------------------------|
D|-----------------------------------------------|
A|-------------6---6-6---------------------------|
E|--3---3-3---------------6---6-6----5---5-5---5-| x4


Chorus 2

G|-----------------------------------------------|
D|-----------------------------------------------|
A|-------------6---6-6---------------------------|
E|--3---3-3---------------6---6-6----5---5-5---5-| x2


Bridge

G|-------------------------------------------------|
D|-------------------------------------------------|
A|---6--6-6----6-6--6-6----------------------------|
E|------------------------6-6--6-6----5-5--5-5---5-| x1

G|-------------------------------------------------|
D|-------------------------------------------------|
A|--6-6--6-6----6-6--6-6---------------------------|
E|------------------------6-6--6-6----5-5-55555555-| x1



G|-----------------------------------------------|
D|-----------------------------------------------|
A|-------------6---6-6---------------------------|
E|--3---3-3---------------6---6-6----5---5-5---5-| x2


Bass pauses; come in again after ”...help me to understand”

Verse 2

G|-----------------------------------------------|
D|-----------------------------------------------|
A|-------------6---6-6---------------------------|
E|--3---3-3---------------6---6-6----5---5-5---5-| x2

Chorus 3
G|-----------------------------------------------|
D|-----------------------------------------------|
A|-------------6---6-6---------------------------|
E|--3---3-3---------------6---6-6----5---5-5---5-| x4


Then end with:

G|-------|
D|-------|
A|-------|
E|--3~---|

Searched for a tab for this but didn't find any. So I thought I would give it a try. I'm 
playing bass for a little more than a month so it may not be 100% correct. This site 
helped me, so I thought I could give something back. This is my first tab, enjoy!
comments
We did not receive enough feedback on this tab! Please rate:
print report bad tab
1 2 3 4 5
I want to post or [tab]
guest
You may want to rate the tab now too:
select rating
Please do not post tabs as comments. Select "correction" instead!