Oops, an error
Loading. Please wait.

Tong Hua Fairy Tale chords

version 1
version 1

Whole song

Interactive

233,701 views 111 this week
2 commentsread comments
1 2 3 4 5
x 15
add to favorites
×
Save as Personal and add changes to this tab that will be seen only by you. Learn more ›
×
You can save this tab as Personal to edit and correct it or add notes. All changes will be seen only by you. Learn more »
launch autoscroll
font size
0
reset
transpose
0
reset
simplify chords
display chords
guitar tuner
edit
Autoscroll
slow
fast
+/-
esc
set tempo
stop
Author
Difficulty
intermediate
Strumming
There is no strumming pattern for this song yet. and get +5 IQ
Artist: Michael Wong
Title: Tong Hua (Fairy Tale)
Album: Tong Hua (2005)
Tabbed by: Khoa (yokan@sbcglobal.net)

Arist website: http://www.michael4u.com/
Artist wikipedia: http://en.wikipedia.org/wiki/Guang_Liang

Tuning: Standard

(Chords)

e|---3------0------0------3------2------0------2--|
B|---0------0------1------3------3------0------3--|
G|---0------0------0------2------2------0------4--|
D|---0------2------2------0------0------2------4--|
A|---2------2------3------x------x------3------2--|
E|---3------0------x------x------x------x------x--|
    G      Em     C      Dsus4  D      Cmaj7  Bm


e|---x------3------3------0------x------2------0------2--|
B|---3------0------0------0------x------2------2------2--|
G|---4------0------0------1------1------2------2------3--|
D|---0------0------0------0------2------4------2------4--|
A|---2------x------2------2------4------4------0------4--|
E|---2------x------x------0------4------2------0------2--|
    Bm/F#  G/D    G/B    E7     C#m/G# F#m    A/E    F#


e|---0------0------6------2------2------4------x------2--|
B|---2------0------5------4------4------4------x------2--|
G|---2------2------6------3------4------4------4------4--|
D|---2------2------4------1------4------6------1------4--|
A|---0------2------x------1------2------6------2------4--|
E|---x------0------x------x------x------4------2------2--|
    A      Esus4  F#7    D#m/A# B      G#m    B/F#   F#sus4


[Intro]

G    Em    C    Dsus4


[Verse 1]

D           G                    Em  
Wang Le You Duo Jiu Zai Mei Ting Dao Ni
            Cmaj7               Dsus4
Dui Wo Shuo Ni Zui Ai De Gu Shi
D           G                  Em
Wo Xiang Le Hen Jiu Wo Kai Shi Huang Le
           C
Shi Bu Shi Wo You Zuo Cuo Le Shen Me


[Verse 2]

D         Bm                      Em
Ni Ku Zhe Dui Wo Shuo Tong Hua Li Dou Shi Pian Ren De
         C                        D
Wo Bu Ke Neng Shi Ni De Wang Zi
         Bm                       Em
Ye Xu Ni Bu Hui Dong Cong Ni Shuo Ai Wo Yi Hou
           C                           Dsus4
Wo De Tian Kong Xin Xin Dou Liang Le


[Verse 3]

D                  G        Bm/F#    Em            G/D
Wo Yuan Bian Cheng Tong Hua Li Ni Ai De Na Ge Tian Shi
                 C                   D
Zhang Kai Shuang Shou Bian Cheng Chi Bang Shou Hu Ni
G            C                D             G               Em
Ni Yao Xiang Xin Xiang Xin Wo Men Hui Xiang Tong Hua Gu Shi Li
        C          Dsus4   C
Xing Fu He Kuai Le Shi Jie Ju


[Instrumental]

G/B   Am        G        C    G/B    Am        Dsus4


After instrumental break, crescendo then repeat verse 2 and 3.
After the repeat, don't play the instrumental break again.


[Verse 4]

E7                A        C#m/G#   F#m      A/E
Wo Yao Bian Cheng Tong Hua Li Ni Ai De Na Ge Tian Shi
                 D               E
Zhang Kai Shuang Shou Bian Cheng Chi Bang Shou Hu Ni
A            D             E                A
Ni Yao Xiang Xin Xiang Xin Wo Men Hui Xiang Tong Hua Gu Shi Li
F#m        D       Esus4   A
Xing Fu He Kuai Le Shi Jie Ju


[Verse 5]

F#7         B     D#m/A#               G#m        B/F#
Wo Hui Bian Cheng Tong Hua Li Ni Ai De Na Ge Tian Shi
                 E               F#
Zhang Kai Shuang Shou Bian Cheng Chi Bang Shou Hu Ni
B                E         F#               B
Ni Yao Xiang Xin Xiang Xin Wo Men Hui Xiang Tong Hua Gu Shi Li
G#m     E          F#sus4  B
Xing Fu He Kuai Le Shi Jie Ju


[Outro]

G#m   E          F#sus4  F#    B
Yi Qi Xie Wo Men De       Jie   Ju

            
            
Suggest correction
Creating personal tab
Creating personal tab
You can edit any tab online and save it as your Personal.

You can edit, replace or remove any tab part or add personal notes – all changes will be seen only by you.

Personal tabs can be accessed anytime from any device, even offline.
Learn more »
comments
print report bad tab
2 comments total.
0 reply
haiphong 157 May 25, 2006 03:51 PM

I forgot to mention that the CD version that Michael sings to is in Eb (every string down half step) tuning.

0 reply
lamchau 20 Dec 11, 2008 10:16 AM

thanks!

guest
You may want to rate the tab now too:
select rating
Wanna post a correction for this tab? Suggest correction