Oops, an error
Loading. Please wait.

Iridescent White Lights Tab

583 views 1 this week
no commentswrite comment
1 2 3 4 5
please rate
add to favorites
launch autoscroll
font size
0
reset
how to read this tab
guitar tuner
Tab Pro tools
  • play this tab
  • loop segment
  • change instrument
  • show fretboard
  • metronome
Autoscroll
slow
fast
+/-
esc
set tempo
stop
Difficulty
intermediate
  Intro
e----------------------------------------------------|
B-----3-------3-------3-------3----------------------|
G----4-4-----4-4-----4-4-----4-4---------------------|
D---4---4---4---4---4---4---4---4--------------------|
A--2-----2-0-----0---------------0-------------------|
E------------------3------3-0------------------------|

e-----------------------------------------------------|
B-----3-------3-------3-------3-----------------------|
G----4-4-----4-4-----4-4-----4-4----------------------|
D---4---4---4---4---4---4---4---4---------------------|
A--2-----2-0-----0---------------0--------------------|
E------------------3------3-0-------------------------|

e-----------------------------------------------------|
B-----3--------3--------------------------------------|
G----4-4-----4-4--------------------------------------|
D---4---4---4---4-------------------------------------|
A--2-----2-0-----0------------------------------------|
E------------------3----------------------------------|


 Verse 2 Times
e----------------------------------------------------|
B----------------------------------------------------|
G--4-4-4-4-4-4-4-4-4---------------------------------|
D--4-4-4-4-4-4-4-4-4--2-2-2-2-2-2-2-2-2--------------|
A--2-2-2-2-2-2-2-2-2--2-2-2-2-2-2-2-2-2--------------|
E----------------------0-0-0-0-0-0-0-0-0-------------|
 Medium Palm Mute All

 2 Times
e-----------------------------------------------------|
B------------3----------------------------------------|
G--4-4------3-----------------------------------------|
D--4-4------3--4-4-4----------------------------------|
A--2-2-0-or-0--4-4-4----------------------------------|
E---------------2-2-2---------------------------------|
 Open A string or A chord

 Chorus/2 Times
e-----------------------------------------------------|
B--2-2-2-2--------------------------------------------|
G--2-2-2-2-----------4-4-4-4-4-4-4-4------------------|
D--2-2-2-2-2-2-2-2--4-4-4-4-4-4-4-4-------------------|
A-----------2-2-2-2--2-2-2-2-2-2-2-2------------------|
E-----------0-0-0-0-----------------------------------|
                                     Pm. . . . . . . .
 Verse 2 Times
e----------------------------------------------------|
B----------------------------------------------------|
G--4-4-4-4-4-4-4-4-4---------------------------------|
D--4-4-4-4-4-4-4-4-4--2-2-2-2-2-2-2-2-2--------------|
A--2-2-2-2-2-2-2-2-2--2-2-2-2-2-2-2-2-2--------------|
E----------------------0-0-0-0-0-0-0-0-0-------------|
 Medium Palm Mute All

 Chorus/2 Times
e----------------------------------------------------|
B--2-2-2-2-------------------------------------------|
G--2-2-2-2----------4-4-4-4-4-4-4-4------------------|
D--2-2-2-2-2-2-2-2--4-4-4-4-4-4-4-4------------------|
A----------2-2-2-2--2-2-2-2-2-2-2-2------------------|
E----------0-0-0-0-----------------------------------|
                                    Pm. . . . . . . .

e----------------------------------------------------|
B----------------------------------------------------|
G--4-4-4-4-4-4-4-4-----4-4-4-4-4-4-4-4---------------|
D--4-4-4-4-4-4-4-4--4--4-4-4-4-4-4-4-4---------------|
A--2-2-2-2-2-2-2-2--4--2-2-2-2-2-2-2-2---------------|
E--------------------2-------------------------------|
  Hit the chord and then palm mute

  Outro Chords/10 Times
e----------------------------------------------------|
B----------------------------------------------------|
G--4-4-4-4-4-----------------------------------------|
D--4-4-4-4-4-2-2-2-2-2-6-6-6-6-6-4-4-4-4-4-----------|
A--2-2-2-2-2-2-2-2-2-2-6-6-6-6-6-4-4-4-4-4-----------|
E-------------0-0-0-0-0-4-4-4-4-4-2-2-2-2-2----------|
  Second time around keep picking B

  Outro 2 times
e-----------------------------------------------------|
B-----------------------------------------------------|
G----3---3---3---3------------------------------------|
D---3-3-3-3-3-3-3-3-----------------------------------|
A--2---0--------------2-------------------------------|
E-----------3---0-------------------------------------|
  End on B single note or chord and let ring 2nd time

Questions or suggestions e-mail goingdown2die@yahoo.com
comments
We did not receive enough feedback on this tab! Please rate:
print report bad tab
1 2 3 4 5
I want to post or [tab]
guest
You may want to rate the tab now too:
select rating
Please do not post tabs as comments. Select "correction" instead!