Oops, an error
Loading. Please wait.

Lost Skeleton tab

328 views 1 this week
4 commentsread comments
1 2 3 4 5
x 4
add to favorites
×
Save as Personal and add changes to this tab that will be seen only by you. Learn more ›
×
You can save this tab as Personal to edit and correct it or add notes. All changes will be seen only by you. Learn more »
launch autoscroll
font size
0
reset
how to read this tab
guitar tuner
edit
Autoscroll
slow
fast
+/-
esc
set tempo
stop
-------------------------------------------------------------------------------
                             Lost Skeleton - Michale Graves
-------------------------------------------------------------------------------
Tabbed by: Gabriel aka Imlatino
E-mail:

Song here: https://www.youtube.com/watch?v=WUQSRsCT408

Tuning: Half-Step Down

[INTRO]

eb|------------------------------------------------------------------------|
Bb|------------------------------------------------------------------------|
Gb|----------7--5----------------------------------------------------------|
Db|----------7--5-------------5--2----[x4]---8888888888888888888888888-----|
Ab|--5-7-5-0-5--3---3-5-3-0---5--2-----------8888888888888888888888888-----|   
Eb|---------------------------3--0-----------6666666666666666666666666-----|
                                             xxxxxxxxxxxxxxxxx
[VERSE 1,2]

eb|------------------|
Bb|------------------|
Gb|------------------| x23
Db|------------------|
Ab|------------------|
Eb|-5-5-3-0-5-5-3-0--|

[PRE-CHORUS]

eb|----------------------------------------------------|
Bb|----------------------------------------------------|
Gb|--66666666-------------66666666---99999999----------|
Db|--66666666---7777777---66666666---99999999----------|
Ab|--44444444---7777777---44444444---77777777----------|
Eb|-------------5555555--------------------------------|

eb|-------------------------------------------------|
Bb|-------------------------------------------------|
Gb|--66666666---------------------------------------|
Db|--66666666---77777777---6666666---7777777--------|
Ab|--44444444---77777777---6666666---7777777--------|
Eb|-------------55555555---4444444---5555555--------|

[CHORUS]

eb|---------------------------------------------------|
Bb|---------------------------------------------------|
Gb|--999999999----------------------------------------|
Db|--999999999---99999999---777777777777777777--------|  x2
Ab|--777777777---99999999---777777777777777777--------|
Eb|--------------77777777---555555555555555555--------|

[BRIDGE, ENDING]

eb|----------------------------------------|
Bb|----------------------------------------|
Gb|----------------------------------------|
Db|---55--44--55--44--55--44---8--8--------|  x4
Ab|---55--44--55--44--55--44---8--8--------|
Eb|---33--22--33--22--33--22---6--6--------|



[INTRO]

[VERSE 1]

[PRE-CHORUS]

[CHORUS]

[BRIDGE]

[VERSE 2]

[PRE-CHORUS]

[CHORUS]

[ENDING]



************************************

| /   slide up
| \   slide down
| h   hammer-on
| p   pull-off
| ~   vibrato
| +   harmonic
| x   Mute note
| b   Bend
| pb  Pre-bend
| br  Bend release
| pbr Pre-bend release
| brb Bend release bend

************************************

            
            
Suggest correction
Creating personal tab
Creating personal tab
You can edit any tab online and save it as your Personal.

You can edit, replace or remove any tab part or add personal notes – all changes will be seen only by you.

Personal tabs can be accessed anytime from any device, even offline.
Learn more »
comments
print report bad tab
4 comments total. Showing first comments.
+1 reply
ddepuy 10 Feb 28, 2016 03:09 PM

This is not even close to correct.The intro is missing notes and the rest of the song doesn't sound anything like the recording.

0 reply
imlatino 94 Mar 11, 2016 08:32 PM

My apologies for sounding a bit snippy, I just figured you'd be this random troll.

guest
You may want to rate the tab now too:
select rating
Wanna post a correction for this tab? Suggest correction