Oops, an error
Loading. Please wait.

Punk Rock Is Dead Tab

993 views 1 this week
no commentswrite comment
1 2 3 4 5
please rate
add to favorites
launch autoscroll
font size
0
reset
how to read this tab
guitar tuner
Autoscroll
slow
fast
+/-
esc
set tempo
stop
Help us to improve Ultimate-Guitar.com Take our survey!
×
Difficulty
intermediate
  Intro                                           2 Times
e---------------------------|-------------------------|
B---------------------------|-------------------------|
G--4----4-------------------|------4--------4---------|
D--4-/--4--/----------------|------4--4--2--4---------|
A--2-/--2--/----------------|------2--4--2--2---------|
E---------------------------|---------2--0------------|
      / Slide pick

  3 Times
e------------------------------------------------------|
B------------------------------------------------------|
G--4-4-4-4-4-----4-4-4-4-----------4-4-4-4-------------|
D--4-4-4-4-4-----4-4-4-4--2-2-2-2--4-4-4-4-------------|
A--2-2-2-2-2-1/2-2-2-2-2--2-2-2-2--2-2-2-2-------------|
E--------------------------0-0-0-0---------------------|
          The Third time play the last two chords
  2 Times
e-------------------------------------------------------|
B-------------------------------------------------------|
G---------------------3/4-4-4---3/4-4-4---3/4-4-4-------|
D--4-4-4-4--2-2-2-2--3/4-4-4---3/4-4-4---3/4-4-4--------|
A--4-4-4-4--2-2-2-2--1/2-2-2---1/2-2-2---1/2-2-2--------|
E--2-2-2-2--0-0-0-0-------------------------------------|

  1 Time
e-----------------------------------------------------|
B-----------------------------------------------------|
G--2-2-2-2------------4-4-4-4-4-4-4-------------------|
D--2-2-2-2--4-4-4-4---4-4-4-4-4-4-4-------------------|
A--2-2-2-2--4-4-4-4---2-2-2-2-2-2-2-------------------|
E------------2-2-2-2----------------------------------|
                                       Pm. . . . . . .
  3 Times                             2 Times
e-----------------------|-------------------------------|
B-----------------------|-------------------------------|
G--9-9-9-9-------------*|-3/4-4-4---3/4-4-4---3/4-4-4---|
D--9-9-9-9--9-9-9-9---9|-3/4-4-4---3/4-4-4---3/4-4-4----|
A--7-7-7-7--9-9-9-9---9|-1/2-2-2---1/2-2-2---1/2-2-2----|
E------------7-7-7-7---7|-------------------------------|
  * the 3rd time    Pm.


 4 Times
e----------------------------------------------------|
B----------------------------------------------------|
G------4--------4------------------------------------|
D------4--4--2--4------------------------------------|
A------2--4--2--2------------------------------------|
E---------2--0---------------------------------------|

 1 Time
e------------------------------------------------------|
B------------------------------------------------------|
G--2-2-2-2-----------4-4-4-4-4-4-4---------------------|
D--2-2-2-2--4-4-4-4--4-4-4-4-4-4-4---------------------|
A--2-2-2-2--4-4-4-4--2-2-2-2-2-2-2---------------------|
E------------2-2-2-2-----------------------------------|
                                     Pm. . . . . . .

3 Times                                 2 Times
e-----------------------|-------------------------------|
B-----------------------|-------------------------------|
G--9-9-9-9-------------*|-3/4-4-4---3/4-4-4---3/4-4-4---|
D--9-9-9-9--9-9-9-9---9|-3/4-4-4---3/4-4-4---3/4-4-4----|
A--7-7-7-7--9-9-9-9---9|-1/2-2-2---1/2-2-2---1/2-2-2----|
E------------7-7-7-7---7|-------------------------------|
  * the 3rd time    Pm.


 2 Times   During The Solo
e----------------------------------------------------|
B----------------------------------------------------|
G------4--------4----4-4-4-4-4-----------------------|
D------4--4--2--4----4-4-4-4-4-----------------------|
A------2--4--2--2----2-2-2-2-2-----------------------|
E---------2--0---------------------------------------|
                                     Pm. . . . .


  2 Times
e-------------------------------------------------------|
B-------------------------------------------------------|
G---------------------3/4-4-4---3/4-4-4---3/4-4-4-------|
D--4-4-4-4--2-2-2-2--3/4-4-4---3/4-4-4---3/4-4-4--------|
A--4-4-4-4--2-2-2-2--1/2-2-2---1/2-2-2---1/2-2-2--------|
E--2-2-2-2--0-0-0-0-------------------------------------|

 1 Time
e------------------------------------------------------|
B------------------------------------------------------|
G--2-2-2-2-----------4-4-4-4-4-4-----------------------|
D--2-2-2-2--4-4-4-4--4-4-4-4-4-4-----------------------|
A--2-2-2-2--4-4-4-4--2-2-2-2-2-2-----------------------|
E------------2-2-2-2-----------------------------------|
                                        Pm. . . . . .

3 Times                                 1 Time
e-----------------------|-------------------------------|
B-----------------------|-------------------------------|
G--9-9-9-9-------------*|-3/4-4-4---3/4-4-4---3/4-4-4---|
D--9-9-9-9--9-9-9-9---9|-3/4-4-4---3/4-4-4---3/4-4-4----|
A--7-7-7-7--9-9-9-9---9|-1/2-2-2---1/2-2-2---1/2-2-2----|
E------------7-7-7-7---7|-------------------------------|
  * the 3rd time    Pm.


3 Times                                  2 Times
e-----------------------|-------------------------------|
B-----------------------|-------------------------------|
G--9-9-9-9-------------*|-3/4-4-4---3/4-4-4---3/4-4-4---|
D--9-9-9-9--9-9-9-9---9|-3/4-4-4---3/4-4-4---3/4-4-4----|
A--7-7-7-7--9-9-9-9---9|-1/2-2-2---1/2-2-2---1/2-2-2----|
E------------7-7-7-7---7|-------------------------------|
  * the 3rd time    Pm.

  End on B
e----------------------------------------------------|
B----------------------------------------------------|
G---------4------------------------------------------|
D--2-2-2--4------------------------------------------|
A--2-2-2--2------------------------------------------|
E--0-0-0---------------------------------------------|
 Pm. . .         ^Fades out on B
Suggest correction new What's this?
You can suggest a correction to this tab. Community and Mods will review your correction and vote to approve or reject it.
comments
We did not receive enough feedback on this tab! Please rate:
print report bad tab
1 2 3 4 5
guest
You may want to rate the tab now too:
select rating
Please do not post tabs as comments. Select "correction" instead!