Oops, an error
Loading. Please wait.

Love Me Please Love Me bass

13 views 1 this week
no commentswrite comment
1 2 3 4 5
3 more votes to show rating
add to favorites
×
Save as Personal and add changes to this tab that will be seen only by you. Learn more ›
×
You can save this tab as Personal to edit and correct it or add notes. All changes will be seen only by you. Learn more »
launch autoscroll
font size
0
reset
guitar tuner
edit
Autoscroll
slow
fast
+/-
esc
set tempo
stop
Artist: Michel Polnareff
Song: Love Me Please Love Me
Tuning - Standard
Time - 4/4
tabbed by electricbunny

[Chorus]                                                            
G|--------------------------------|----------------0-------------0-|
D|----------------1-------------1-|--------------2---------2---3---|
A|--------------3---------3---4---|3-------------------------------|
E|4-------------------------------|--------------------------------|
 
G|--------------1---------------1-|--------------1-----------------|
D|3---------------1---------------|----------------2-------2---2-2-|
A|--------------------------------|4-------------------------------|
E|--------------------------------|--------------------------------|
 
G|1-------------------------------|--------------1---------------0-|
D|--------------1-3-------------1-|------------3---1-------1---1---|
A|--------------------------------|4-------4-----------------------|
E|--------------------------------|--------------------------------|
 
G|1-------------------------------|1---------------1---1-1-1-------|
D|--------------1-------------1-3-|--------------1-------------3-1-|
A|------------3---4-------4-------|--------------------------------|
E|--------------------------------|--------------------------------|
 
[Verse]                                                             
G|----------------1-------1-------|----------------0-------0-------|
D|--------------3-------------3---|--------------1-------------1---|
A|4-----------------------------4-|3-----------------------------3-|
E|--------------------------------|--------------------------------|
 
G|------------------------------0-|1---------------1-------1-------|
D|------------1-3-1-------1---3---|--------------1-------------3-1-|
A|4-------------------------------|--------------------------------|
E|--------------------------------|--------------------------------|
 
G|----------------1-------1-------|----------------0-------0-------|
D|--------------3-------------3---|--------------1-------------1---|
A|4-----------------------------4-|3-----------------------------3-|
E|--------------------------------|--------------------------------|
 
G|----------------1-------------1-|--------------0-3---------------|
D|--------------3-------------3---|1-----------------------1-------|
A|4-----------------------4-------|----------------------------3-1-|
E|--------------------------------|--------------------------------|
 
[Chorus]                                                            
G|--------------------------------|----------------0-------------0-|
D|----------------1-------------1-|--------------2---------2---3---|
A|--------------3---------3---4---|3-------------------------------|
E|4-------------------------------|--------------------------------|
 
G|--------------1---------------1-|--------------1-----------------|
D|3---------------1---------------|----------------2-------2---2-2-|
A|--------------------------------|4-------------------------------|
E|--------------------------------|--------------------------------|
 
G|1-------------------------------|--------------1---------------0-|
D|--------------1-3-------------1-|------------3---1-------1---1---|
A|--------------------------------|4-------4-----------------------|
E|--------------------------------|--------------------------------|
 
G|1-----------------------------1-|--------------------------------|
D|--------------1-3-------1---3---|--------------3-1-------1-------|
A|--------------------------------|4---------------------------3-1-|
E|--------------------------------|--------------------------------|
 
G|--------------------------------|----------------0-------------0-|
D|----------------1-------------1-|--------------2---------2---3---|
A|--------------3---------3---4---|3-------------------------------|
E|4-------------------------------|--------------------------------|
 
G|--------------1---------------1-|--------------1-----------------|
D|3---------------1---------------|----------------2-------2---2-2-|
A|--------------------------------|4-------------------------------|
E|--------------------------------|--------------------------------|
 
G|1-------------------------------|--------------1---------------0-|
D|--------------1-3-------------1-|------------3---1-------1---1---|
A|--------------------------------|4-------4-----------------------|
E|--------------------------------|--------------------------------|
 
G|1-------------------------------|1---------------1---1-1-1-------|
D|--------------1-------------1-3-|--------------1-------------3-1-|
A|------------3---4-------4-------|--------------------------------|
E|--------------------------------|--------------------------------|
 
[Verse]                                                             
G|----------------1-------1-------|----------------0-------0-------|
D|--------------3-------------3---|--------------1-------------1---|
A|4-----------------------------4-|3-----------------------------3-|
E|--------------------------------|--------------------------------|
 
G|------------------------------0-|1---------------1-------1-------|
D|------------1-3-1-------1---3---|--------------1-------------3-1-|
A|--4-----------------------------|--------------------------------|
E|--------------------------------|--------------------------------|
 
G|----------------1-------1-------|----------------0-------0-------|
D|--------------3-------------3---|--------------1-------------1---|
A|4-----------------------------4-|3-----------------------------3-|
E|--------------------------------|--------------------------------|
 
                                                                    
G|----------------1-------------1-|--------------0-3---------------|
D|--------------3-------------3---|1-----------------------1-------|
A|4-----------------------4-------|----------------------------3-1-|
E|--------------------------------|--------------------------------|
 
[Chorus]                                                            
G|--------------------------------|----------------0-------------0-|
D|----------------1-------------1-|--------------2---------2---3---|
A|--------------3---------3---4---|3-------------------------------|
E|4-------------------------------|--------------------------------|
 
G|--------------1---------------1-|--------------1-----------------|
D|3---------------1---------------|----------------2-------2---2-2-|
A|--------------------------------|4-------------------------------|
E|--------------------------------|--------------------------------|
 
G|1-------------------------------|--------------1---------------0-|
D|--------------1-3-------------1-|------------3---1-------1---1---|
A|--------------------------------|4-------4-----------------------|
E|--------------------------------|--------------------------------|
 
G|1-----------------------------1-|--------------------------------|
D|--------------1-3-------1---3---|--------------3-1-------1-------|
A|--------------------------------|4---------------------------3-1-|
E|--------------------------------|--------------------------------|
 
G|--------------------------------|----------------0-------------0-|
D|----------------1-------------1-|--------------2---------2---3---|
A|--------------3---------3---4---|3-------------------------------|
E|4-------------------------------|--------------------------------|
 
G|--------------1---------------1-|--------------1-----------------|
D|3---------------1---------------|----------------2-------2---2-2-|
A|--------------------------------|4-------------------------------|
E|--------------------------------|--------------------------------|
 
G|1-------------------------------|--------------1---------------0-|
D|--------------1-3-------------1-|------------3---1-------1---1---|
A|--------------------------------|4-------4-----------------------|
E|--------------------------------|--------------------------------|
 
G|1-----------------------------1-|--------------------------------|
D|--------------1-3-------1---3---|--------------3-1-------1-------|
A|--------------------------------|4---------------------------3-1-|
E|--------------------------------|--------------------------------|
 
[Outro]                                                             
G|1-----------------------------1-|--------------1---------------0-|
D|--------------1-3-------1---3---|----------------1-------1---3---|
A|--------------------------------|4-------------------------------|
E|--------------------------------|--------------------------------|
 
G|1-----------------------------1-|--------------1---------------0-|
D|--------------1-3-------1---3---|----------------1-------1---3---|
A|--------------------------------|4-------------------------------|
E|--------------------------------|--------------------------------|
 
G|1-----------------------------1-|--------------------------------|
D|--------------1-3-------1---3---|--------------3-1-------1-------|
A|--------------------------------|4---------------------------3-1-|
E|--------------------------------|--------------------------------|
 
G|------------------------------1-|--------------------------------|
D|--------------1-3-------1---3---|--------------3-1-------1-------|
A|--------------------------------|4---------------------------3-1-|
E|4-------------------------------|--------------------------------|
 
G|--------------------------------|
D|--------------------------------|
A|--------------------------------|
E|4-------------------------------|

            
            
Suggest correction
Creating personal tab
Creating personal tab
You can edit any tab online and save it as your Personal.

You can edit, replace or remove any tab part or add personal notes – all changes will be seen only by you.

Personal tabs can be accessed anytime from any device, even offline.
Learn more »
Give kudos to tab author, rate the tab!
1 2 3 4 5
comments
print report bad tab
guest
You may want to rate the tab now too:
select rating
Wanna post a correction for this tab? Suggest correction