Oops, an error
Loading. Please wait.

Ang Hanap Ko tab

370 views 18 this week
no commentswrite comment
1 2 3 4 5
3 more votes to show rating
add to favorites
×
Save as Personal and add changes to this tab that will be seen only by you. Learn more ›
×
You can save this tab as Personal to edit and correct it or add notes. All changes will be seen only by you. Learn more »
launch autoscroll
font size
0
reset
how to read this tab
guitar tuner
edit
Autoscroll
slow
fast
+/-
esc
set tempo
stop
Author
Difficulty
About this tab version
There is video fingerstyle cover so that it will be easier to follow. Was this info helpful? Yes No
Ang Hanap by Michelle Ayalde

(Ni Yao Di Ai - Tagalog Version)

Tabs written and arranged by Edwin-E (in YouTube)
Blog: http://guitarplucking.blogspot.com
Facebook Page: http://facebook.com/EdwinEGuitar

Video Fingerstyle Cover:  https://youtu.be/MxH_p0n4v6A

[Verse 1]
E|--1-----------------0--3--0--|--|
B|--1--------1--1-----1-----1--|--|
G|--2--2--2--------2--2--------|--|
D|--3-----------------2--------|--|
A|--3-----------------0--------|--|
E|--1--------------------------|--|
F              Am
  Ikaw ang panaginip ko

E|--------1-----------------------|--|
B|--------3--3--3--3--1--3--------|--|
G|-----2--2-----------------------|--|
D|--0-----------------------3--5--|--|
A|--------------------------3-----|--|
E|--------------------------------|--|
Dm                C
   Lagi kang nasa isip,

E|--------------------0--1--1h3--1--0--------0--|
B|-----------------3-----3----------1--1-----2--|
G|-----2--2--3--3--------3----------2-----2--1--|
D|--5-------------------------------2--------0--|
A|-----------1----------------------0-----------|
E|----------------------------------------------|
      Bb                       Am        Dm
Sana ako ay mapansin sa twing ika'y tumingin

E|--------------------------------------------------------|
B|--------------------------------------------------------|
G|--2--2--2--3--3--3--2--0--------------------------------|
D|--------------------------3--5-------3h5--3----------3--|
A|--------------------------3-----3h5----------3--3h5-----|
E|-----------3--------------------------------------------|
         G                C
Parang ako'y dinuduyan sa hangin

[Verse 2]
E|--1-----------------0--3--0--|--|
B|--1--------1--1-----1-----1--|--|
G|--2--2--2--------2--2--------|--|
D|--3-----------------2--------|--|
A|--3-----------------0--------|--|
E|--1--------------------------|--|
F            Am
  Akala ko ako'y yakap mo

E|--------1-----------1--3/5--3--3h5--5--5p3--------|
B|--------3--3--3--3--------------------------6--3--|
G|-----2-----------------------------------------3--|
D|--0--------------------------------------------3--|
A|----------------------------3------------------1--|
E|--------------------------------------------------|
Dm                C
    Lagi sa tabi ko ohhhh ohhhooo

E|-----------0--1--1h3-----------1--|
B|--3--3--3-------------1--1-----3--|
G|----------------------2-----2--2--|
D|----------------------2--------0--|
A|----------------------0-----------|
E|----------------------------------|
Bb                      Am       Dm
   Pero di ko alam kung san na tayo

E|--------------------------3/5--3-----|
B|-----------------------3----------5--|
G|--2--2--2--3--3--3--3-------------5--|
D|----------------------------------5--|
A|-------------------------------3-----|
E|-----------3--------3----------------|
           G              C
Basta alam ko ika’y mahal ko

[Chorus]
E|-----------5--1-----|
B|-----3--6--1--1-----|
G|--5--------2--2-----|
D|--------------------|
A|--------------------|
E|-----------1-----1--|
          F
Ang hanap ko

E|--5--3--1-------5-----|
B|-------------------5--|
G|-------------------5--|
D|----------------------|
A|----------------------|
E|--1--------1/5--5-----|
            Am
Ay yong pag-ibig

E|--5--5--5-------------------|
B|-----------8--6--8--6--6/8--|
G|-----------------6-----6----|
D|----------------------------|
A|----------------------------|
E|-----------------6-----6----|
             Bb
Magkasama nating damhin

E|--------5--3--3-----------5--3--3--|
B|-----6--------3--3--3--3--------3--|
G|--7--------------------------------|
D|-----------------------------------|
A|-----------------------------------|
E|--------3-----------------3--------|
        G
Ang pag-ibig ko'y para lang sa ’yo

E|-----5--8--5--5--------5-----|
B|--6--------------8--6-----5--|
G|--------------------------5--|
D|-----------------------------|
A|-----8--------8--------------|
E|-----------------------5-----|
   F                 Am
Sa puso ko, yakap mo ay

E|--5--5-------------------|
B|--------8--6--8--6--6/8--|
G|--------------7-----7----|
D|-------------------------|
A|-------------------------|
E|--------------6-----6----|
           Bb
Sabik na hinihintay

E|-----------5--3--3--|
B|--------6--3-----3--|
G|--7--7--------------|
D|--------------------|
A|--------------------|
E|-----------3--------|
          G
Pagkat sa buhay ko,

E|--------5--3--3--|
B|--3--3--3-----3--|
G|-----------------|
D|-----------------|
A|-----------------|
E|--------3--------|
       G
Ang pangarap ko,

E|--3--3--3--1--8--6--5--|
B|-----------2--------1--|
G|-----------3--------2--|
D|-----------3-----------|
A|-----------1-----------|
E|--------------------1--|
       Bbm                F
Tayo lamang hanggang sa huli

[INTERLUDE] F-Am-Bb-C

[Verse 3]
E|--1-----------------0--3--0--|--|
B|--1--------1--1-----1-----1--|--|
G|--2--2--2--------2--2--------|--|
D|--3-----------------2--------|--|
A|--3-----------------0--------|--|
E|--1--------------------------|--|
F            Am

E|--------1-----------1--3/5--3--3h5--5--5p3--------|
B|--------3--3--3--3--------------------------6--3--|
G|-----2-----------------------------------------3--|
D|--0--------------------------------------------3--|
A|----------------------------3------------------1--|
E|--------------------------------------------------|
Dm                C

E|-----------0--1--1h3-----------1--|
B|--3--3--3-------------1--1-----3--|
G|----------------------2-----2--2--|
D|----------------------2--------0--|
A|----------------------0-----------|
E|----------------------------------|
Bb                      Am       Dm

E|--------------------------3/5--3-----|
B|-----------------------3----------5--|
G|--2--2--2--3--3--3--3-------------5--|
D|----------------------------------5--|
A|-------------------------------3-----|
E|-----------3--------3----------------|
           G              C

[Chorus]
E|-----------5--1-----|
B|-----3--6--1--1-----|
G|--5--------2--2-----|
D|--------------------|
A|--------------------|
E|-----------1-----1--|
          F
Ang hanap ko

E|--5--3--1-------5-----|
B|-------------------5--|
G|-------------------5--|
D|----------------------|
A|----------------------|
E|--1--------1/5--5-----|
            Am
Ay yong pag-ibig

E|--5--5--5-------------------|
B|-----------8--6--8--6--6/8--|
G|-----------------6-----6----|
D|----------------------------|
A|----------------------------|
E|-----------------6-----6----|
             Bb
Magkasama nating damhin

E|--------5--3--3-----------5--3--3--|
B|-----6--------3--3--3--3--------3--|
G|--7--------------------------------|
D|-----------------------------------|
A|-----------------------------------|
E|--------3-----------------3--------|
        G
Ang pag-ibig ko'y para lang sa ’yo

E|-----5--8--5--5--------5-----|
B|--6--------------8--6-----5--|
G|--------------------------5--|
D|-----------------------------|
A|-----8--------8--------------|
E|-----------------------5-----|
   F                 Am
Sa puso ko, yakap mo ay

E|--5--5-------------------|
B|--------8--6--8--6--6/8--|
G|--------------7-----7----|
D|-------------------------|
A|-------------------------|
E|--------------6-----6----|
           Bb
Sabik na hinihintay

E|-----------5--3--3--|
B|--------6--3-----3--|
G|--7--7--------------|
D|--------------------|
A|--------------------|
E|-----------3--------|
          G
Pagkat sa buhay ko,

E|--------5--3--3--|
B|--3--3--3-----3--|
G|-----------------|
D|-----------------|
A|-----------------|
E|--------3--------|
       G
Ang pangarap ko,

E|--3--3--3--1-----------------1--1---|
B|-----------2--2--------1--------1---|
G|-----------3-----3--2-----2-----2---|
D|-----------3--------------------3---|
A|-----------1--------------------3---|
E|--------------------1-----------1---|
Bbm                        F
Tayo lamang hanggang sa huli

[OUTTRO] F-Am-Bb-C-F

************************************

| h  Hammer-on
| p  Pull-off
| /  Slide up

************************************
Suggest correction
Creating personal tab
Creating personal tab
You can edit any tab online and save it as your Personal.

You can edit, replace or remove any tab part or add personal notes – all changes will be seen only by you.

Personal tabs can be accessed anytime from any device, even offline.
Learn more »
Give kudos to tab author, rate the tab!
1 2 3 4 5
comments
print report bad tab
guest
You may want to rate the tab now too:
select rating
Wanna post a correction for this tab? Suggest correction