Oops, an error
Loading. Please wait.

All You Wanted Bass Tab

version 1
version 1

Whole song

Interactive

474 views 3 this week
no commentswrite comment
1 2 3 4 5
3 more votes to show rating
add to favorites
launch autoscroll
font size
0
reset
guitar tuner
Autoscroll
slow
fast
+/-
esc
set tempo
stop
Help us to improve Ultimate-Guitar.com Take our survey!
×
Author
No bass for first 13 bars

G---------------|---------------|
D---------------|---------------|
A---------------|8------------6-|
E---------------|---------------|

G---------------|---------------|
D-------------6-|---------------|
A-4-------------|8------------6-|
E---------------|---------------|

G---------------|---------------|
D------6-6------|---------------|
A-4----------3/-|8----------6-6-|
E---------------|---------------|

G---------------|---------------|
D--------6------|---------------|
A-4----------3/-|8------6-6-8-6-|
E---------------|---------------|

G---------------|---------------|
D------6-6-6-8--|5--5-5-5-5-6-7-|
A-4-4-6---------|---------------|
E---------------|---------------|

G---------------|---------------|
D---------------|-----5h6-------|
A-6--6-6-6------|-8-8----4--4-3-|
E----------8-8-6|---------------|

G---------------|---------------|
D---------------|-----5h6-------|
A-6--6-6-6------|-8-8----4--4-3-|
E----------8-8-6|---------------|

G---------------|---------------|
D-6--6-8h9------|---------------|
A--------6--4-3-|---------------|
E---------------|---------------|
Suggest correction
Give kudos to tab author, rate the tab!
1 2 3 4 5
comments
print report bad tab
guest
You may want to rate the tab now too:
select rating
Wanna post a correction for this tab? Suggest correction