Oops, an error
Loading. Please wait.

Breathe Bass Tab

version 1
version 1

Whole song

Interactive

2,149 views 1 this week
no commentswrite comment
1 2 3 4 5
3 more votes to show rating
add to favorites
launch autoscroll
font size
0
reset
guitar tuner
Autoscroll
slow
fast
+/-
esc
set tempo
stop
Help us to improve Ultimate-Guitar.com Take our survey!
×
“Breathe” Bass Tab
Michelle Branch
Tabbed by Sophia Bai
Sophiabai18@hotmail.com

Verse
Come in when she starts singing:
G----------------------------------------------------------------|
D----------------------------------------------------------------|
A--1\33333333-00000000-5555333311113333-----h33333333--00000000--|
E----------------------------------------------------------------|

G----------------------------------------------------------------|
D----------------------------------------------------------------|
A-----5555333311113333-----------0h3~--------------1~------------|
E------------------------------------------1~------------1-2-3---|

G-----------------------------------------------------------------|
D-----------------------------------------------------------------|
A----3~------1~----------------3~---------1~----------3~------1~--|
E---------1~--------1-2-3-----------1~-----------------1~---------|

Chorus
“If I just…”
G----------------------------------------------------------------|
D----------------------------------------------------------------|
A---------------------------------------------------0-0-0--333---|
E--------666--888--101010-----888----666---111-------------------| x2

Post-Chorus (only after chorus 1)
G----------------------------------------------------------------|
D----------------------------------------------------------------|
A----11111111111/3/5-----55555555----33333333--------------------|
E----------------------------------------------------------------|

Repeat Verse
Repeat Chorus

After 2nd chorus
G-- No bass ------------------------------------------------------|
D-----------------------------------------------------------------|
A-----------------------------------------------------------------|
E-----------------------------------------------------------------|

 “Hoping you HEAR…”
G---------------------------------------------------------------|
D----------------10-12-10---------------------------------------|
A-----------------------------------------5~---3~---------------|
E------------------------------6~--1~---------------------------|

G-----------------------------------------------------------------|
D-----------------------------------------------------------------|
A----------------5~---3~------------------------------------------|
E-----6~--1~------------------------------------------------------|

Chorus
“If I just…”
G----------------------------------------------------------------|
D----------------------------------------------------------------|
A---------------------------------------------------0-0-0--333---|
E--------666--888--101010-----888----666---111-------------------| x4

End
“I’ve been driving…”
G---------------------------------------------------------------|
D---------------------------------------------------------------|
A---------------------------------------------------------------|
E----------666--888--101010---888----666--888-----1~------------|
Suggest correction
Give kudos to tab author, rate the tab!
1 2 3 4 5
comments
print report bad tab
guest
You may want to rate the tab now too:
select rating
Wanna post a correction for this tab? Suggest correction