Oops, an error
Loading. Please wait.

Everywhere Bass Tab

version 1
version 1

Whole song

Interactive

5,742 views 9 this week
3 commentsread comments
1 2 3 4 5
please rate
add to favorites
launch autoscroll
font size
0
reset
guitar tuner
Autoscroll
slow
fast
+/-
esc
set tempo
stop
Help us to improve Ultimate-Guitar.com Take our survey!
×
EVERYWHERE
Michelle Brach

Intro acoustic

Verse
G|-------------------------------------|
D|-------------------------------------|
A|--00----033----3---------------------|
E|-------------------33----333---------|

II part
G|-----------------------------------|
D|-----------------------------------|
A|-----------------00----------------|
E|---2222-3333-----22-333------------|

Chorus
G|-------------------------|
D|-------------------------|
A|-------3-3---------------|
E|---1-1-----3-3-3-3-------|

II part
G|------------------------------------------|
D|------------------------------------------|
A|------------------------------------------|
E|---2222-3333-4444-55-22-333---------------|

Bridge
G|------------------------|        |-------------------------------------|
D|------------------------|        |-------------------------------------|
A|------------------------|  x2  |--------2-2-3-3-5-5-7-7-7-7------------|
E|--5-5-2-2-3-3-4-4---|        |--5-5------------------------------------|

Verse 3 (at beginning of the third part)
G|-------------------------------------------------------------------------------------|
D|-------------------------------------------------------------------------------------|
A|------3--2-0---------0---3-----------------------0---3-------------------------------|
E|----------------3---------------3-------3-5-3--------------3---------3/5\3-----------|

Song structure
Verse		x3+1
Chorus		x4
Verse		x3+1
Chorus		x4
Bridge		x1
Verse 3	x1
Chorus		x8
Suggest correction
Give kudos to tab author, rate the tab!
1 2 3 4 5
comments
print report bad tab
3 comments total.
0 reply
mju-basse 246 wrote on October 25 2007, 11:08 am

dude, this is so wrong.. sorry

0 reply
Thineus 31 wrote on June 9 2010, 01:02 pm

Its right you just need to tune your bass 1 semitone higher; e# a# d# g#, or increment each number on the tab by 1.

0 reply
baldy1m 10 wrote on August 30 2016, 11:50 pm

Not even correct with the semi-tone correction... it will not let me submit a poor review

guest
You may want to rate the tab now too:
select rating
Please do not post tabs as comments. Select "correction" instead!