Oops, an error
Loading. Please wait.

Everywhere Tab

version 1
version 1

Whole song

Interactive

25,148 views 54 this week
6 commentsread comments
1 2 3 4 5
x 10
add to favorites
launch autoscroll
font size
0
reset
how to read this tab
guitar tuner
×
Best way to learn
"Everywhere"
Autoscroll
slow
fast
+/-
esc
set tempo
stop
Capo
1st fret
Capo 1
(4/4 time) (four dashes = 1 beat, each bar has extra dash at start for 
readability) 

[Intro] 
(first bars of verse) 
(2x)

[Verse] 
(hammer on-off at end of 2nd Bar '020')
      Am                C                 G
      , . , . , . , .   , . , . , . , .   , . , . , . , .   , . , . , . , .
e|------------------|-----------------|-----------------|-----------------|
B|--------1---------|-------1---------|-------3---------|-------3---------|
G|------------2---2-|-----------0-----|-----------0-----|-----------0---0-|
D|------2-------2---|-----2-------020-|-----0---------0-|-----0-----------|
A|--0---------------|-2h3-------------|-----------------|-----------------|
E|------------------|-----------------|-3-----------3---|-3-----------3---|
      Turn it inside  out so I can      see-aah            
      the part of...  drifting over     me-aah      and   when I wake your-
        ...you that's   
  
     D/F# bass         D/F# bass         G                 G
     , . , . , . , .   , . , . , . , .   , . , . , . , .   , . , . , . , .
e|-----------------|-----------------|-----------------|-----------------|
B|-------3---------|-------3---------|-------3---------|-------3---------|
G|-----------2---2-|-----------2-----|-----------0-----|-----------0-----|
D|-----0-------0---|-----0---------0-|-----0---------0-|-----0---------0-|
A|-----------------|-----------------|-----------------|-----------------|
E|-2---------------|-2-----------2---|-3-----------3---|-3-----------3---|
   or-or                 you're never  there       and   when I sleep your-                

     Am                D7-9/F#bass       G                 G
     , . , . , . , .   , . , . , . , .   , . , . , . , .   , . , . , . , .
e|-----------------|-----------------|-----------------|-3---------------|
B|-------1---------|-------1---------|-------3---------|-3---------------|
G|-----------2---2-|-----------2-----|-----------0-----|-0---------------|
D|-----2-------2---|-----0---------0-|-----0---------0-|-0---------------|
A|-0---------------|-------------0---|-----------------|-x---------------|
E|-----------------|-2---------------|-3-----------3---|-3---------------|
   or-or                 you're every  where                 you're every

(3x)
    Am            C   C             G   G             G   G             Am
    , . , . , . , .   , . , . , . , .   , . , . , . , .   , . , . , . , .
e|-0---0---------0-|-0---0---------3-|-3---3---------3-|-3-3-3---------0-|
B|-1---1---------1-|-1---1---------3-|-3---3---------3-|-3-3-3---------1-|
G|-2---2---------0-|-0---0---------0-|-0---0---------0-|-0-0-0---------2-|
D|-2---2---------2-|-2---2---------0-|-0---0---------0-|-0-0-0---------2-|
A|-0---0---------3-|-3---3---------2-|-2---2---------2-|-2-2-2---------0-|
E|-0---0---------3-|-3---3---------3-|-3---3---------3-|-3-3-3---------0-|
  where..................................................................
      just tell me   how i got   this  far...............................
  just tell me why u here and  who you are........Cause  ev--ry  time I                      

     D/F#bass          D/F#bass      G   G             G   G             D
     , . , . , . , .   , . , . , . , .   , . , . , . , .   , . , . , . , .
e|-2-2-2---------2-|-2-2-2---------3-|-3-3-3---------3-|-3-3-3---------2-|
B|-3-3-3---------3-|-3-3-3---------0-|-0-0-0---------0-|-0-0-0---------3-|
G|-2-2-2---------2-|-2-2-2---------0-|-0-0-0---------0-|-0-0-0---------2-|
D|-0-0-0---------0-|-0-0-0---------0-|-0-0-0---------0-|-0-0-0---------0-|
A|-0-0-0---------0-|-0-0-2---------2-|-2-2-2---------2-|-2-2-2---------0-|
E|-2-2-2---------2-|-2-2-2---------3-|-3-3-3---------3-|-3-3-3---------2-|
   look    you're    nev-----er        there        and  ev--ry  time I

     D/F#bass          D/F#bass      G   G             G   G             D
     , . , . , . , .   , . , . , . , .   , . , . , . , .   , . , . , . , .
e|-2-2-2---------2-|-2-2-2---------3-|-3-3-3-3-3-3-3-3-|-3---------------|
B|-3-3-3---------3-|-3-3-3---------0-|-0-0-0-0-0-0-0-0-|-0---------------|
G|-2-2-2---------2-|-2-2-2---------0-|-0-0-0-0-0-0-0-0-|-0---------------|
D|-0-0-0---------0-|-0-0-0---------0-|-0-0-0-0-0-0-0-0-|-0---------------|
A|-0-0-0---------0-|-0-0-2---------2-|-2-2-2-2-2-2-2-2-|-2---------------|
E|-2-2-2---------2-|-2-2-2---------3-|-3-3-3-3-3-3-3-3-|-3---------------|   
   sleep   you're    all-----ways      there                      Cause your 

     (hammer off at end of 2nd bar ('10')  
      F(9)              C                 G                 G
      , . , . , . , .   , . , . , . , .   , . , . , . , .   , . , . , . , .
e|--------3---------|-------3---------|-------3---------|-------3---------|
B|------------1---1-|-----------1---10|-----------0-----|-----------0-----|
G|------2-------2---|-----0-------0---|-----0---------0-|-----0---------0-|
D|--3---------------|-----------------|-------------0---|-------------0---|
A|------------------|-3---------------|-----------------|-----------------|
E|------------------|-----------------|-3---------------|-3---------------|
    When I touch your hand         it's then I  un--der   stand         the 
    beauty thats within            it's now that we be----gin           you
    always light my   way         there never comes a     day-a-a        no
    matter where I    go            I   always feel you so        Cause your 

[Ending] 
(slowly)
     F9                C                 G                 G
     , . , . , . , .   , . , . , . , .   , . , . , . , .   , . , . , . , .
e|---------3-------|-------3---------|---------3-------|-------3---------|
B|-----1-------1---|-----1-----1h0---|-----0-------0---|-----0-----0-----|
G|-----------------|-------------0---|-----------------|-----------------|
D|-3---------------|-----------------|-----------------|-------------0---|
A|-----------------|-3---------------|-----------------|-----------------|
E|-----------------|-----------------|-3---------------|-3---------------|
   ev------ry     one        I         see                   so tell me

     F9                C                 G                
     , . , . , . , .   , . , . , . , .   , . , . , . , .  
e|---------3-------|-------3---------|-3---------------|
B|-----1-------1---|-----1-----1-----|-3---------------|
G|-----------------|--------------0--|-0---------------|
D|-3---------------|-----------------|-0---------------|
A|-----------------|-3---------------|-2---------------|
E|-----------------|-----------------|-3---------------|
                     do  you see       me-e-e


************************************

| h  Hammer-on
| .  Staccato
| x  Dead note

************************************
Suggest correction
comments
print report bad tab
6 comments total. Showing first comments.
0 reply
AbsoluteZero 80 Dec 14, 2001 07:00 PM

This sux... it's hard to read

0 reply
starwares 52 Mar 08, 2002 07:00 PM

AZ-you should learn how to read music...then come back here...this is as good as it gets...

0 reply
sailormoonfan87 32 Aug 11, 2006 07:21 PM

no cause it's not this complicated as it looks here. ppl dont have to show off that much when it could come along way easier.

guest
You may want to rate the tab now too:
select rating
Wanna post a correction for this tab? Suggest correction