Oops, an error
Loading. Please wait.

Everywhere Tab

version 4
version 4
6,175 views 1 this week
1 commentread comment
1 2 3 4 5
accurate
x 4
add to favorites
launch autoscroll
font size
0
reset
how to read this tab
guitar tuner
Autoscroll
slow
fast
+/-
esc
set tempo
stop
Help us to improve Ultimate-Guitar.com Take our survey!
×
Capo
1st fret
Everywhere
(M. Branch)
From the album "The Spirit Room"
Transcribed by Colleen Plein (ThinknOfU3@aol.com)
For more Michelle Branch tabs visit
http://michellebranch.guitarmaven.com

CAPO ON 1ST FRET - ALL TAB RELATIVE TO CAPO

Chords:   Am    C    G   Fmaj7   E    Dsus
E          0    0    3     3     0      X
B          1    1    0     1     0      3
G          2    0    0     2     1      2
D          2    2    0     3     2      0
A          0    3    2     X     2      X
E          X    X    3     X     0      2

X - means don't strum that string

Intro/Chorus riff:

    Am                C            G
E------------------------------------------------------------
B---------1-----------------1------------3-----------3-------
G------------2-----------------0------------0-----------0----
D------2--------2--------2------------0-----------0----------
A---0---------------0h3--------------------------------------
E----------------------------------3-----------3-------------

Prechorus:

    Dsus                    G
E------------------------------------------------------------
B---------3-----------3-----------3-----------3--------------
G------------2-----------2-----------0-----------0-----------
D------0-----------0-----------0-----------0-----------------
A------------------------------------------------------------
E---2-----------2-----------3-----------3--------------------

    Am           Dsus        G
E------------------------------------------------------------
B---------1------------3-----------3-------------------------
G------------2------------2-----------0----------------------
D------2------------0-----------0----------------------------
A---0--------------------------------------------------------
E----------------2-----------3-------------------------------

Am             C            G
Turn it inside out so I can see
Am                     C             G
The part of you that's drifting over me
                      Dsus            G
And when I wake you're,  you're never there
                 Am      Dsus        G
And when I sleep you're, you're everywhere
            Am       C       G 
You're everywhere


Just tell me how I got this far
Just tell me why you're here and who you are
Cause every time I look you're never there
And every time I sleep you're always there

             Fmaj7   C        G
Cause you're every - where to me 
                    Fmaj7     C     G
And when I close my eyes it's you I see
                    Fmaj7     C        G
You're everything I know that makes me believe
        Fmaj7    C     G  
I'm not alone
               Am   C   D
I'm not alone


I recognize the way you make me feel
It's hard to think that you might not be real
                     Dsus            G
I sense that now the water's getting deep
                  E              C   B/C  Dsus
I try to wash the pain away from me


Repeat Chorus

Solo:
             
E----------------------------------------8--10--12-12--10-------------------
B--10--8--8--8h9--10--8--8--8h9--10--12--------------------13-12-13-12-13-12
G---------------------------------------------------------------------------
D---------------------------------------------------------------------------
A---------------------------------------------------------------------------
E---------------------------------------------------------------------------

"When I touch your hand..."

    Fmaj7         C           G
E---------3-------------3-----------3-----------3-----------------
B------------1-------------1-----------0-----------0--------------
G------2-------------0-----------0-----------0--------------------
D---3-------------------------------------------------------------
A---------------0h3-----------------------------------------------
E-----------------------------3-----------3-----------------------

Fmaj7            C         G
When I touch you hand it's then I understand
    Fmaj7             C        G
The beauty that's within, it's now that we begin
    Fmaj7           C          G
You always light my way, there never comes a day
   Fmaj7          C     G
No matter where I go, I always feel you so

Repeat Chorus

Cause you're everywhere to me
And when I catch my breath it's you I breathe
You're everything I know that makes me believe
I'm not alone

          Fmaj7   C     G
You're in every - one I see
           Fmaj7   C             G
So tell me            do you see me


-Alright!  I finally typed the whole thing out!  I've had a ton
 of requests for this song, so here it is.  If you want more 
 MB tab check out my new site, michellebranch.guitarmaven.com.
 Any questions, comments or suggestions feel free to e-mail me
 anytime.  Enjoy!
                        -Colleen Plein 
Suggest correction new What's this?
You can suggest a correction to this tab. Community and Mods will review your correction and vote to approve or reject it.
comments
print report bad tab
1 comment total.
0 reply
CJGiRLiE03 11 wrote on September 5 2002, 12:00 am

awesome!!! i played it with the song and it rocked!

guest
You may want to rate the tab now too:
select rating
Please do not post tabs as comments. Select "correction" instead!