Oops, an error
Loading. Please wait.

Everywhere Tab

version 7
version 7
1,895 views 1 this week
4 commentsread comments
1 2 3 4 5
accurate
x 4
add to favorites
launch autoscroll
font size
0
reset
how to read this tab
guitar tuner
Autoscroll
slow
fast
+/-
esc
set tempo
stop
Help us to improve Ultimate-Guitar.com Take our survey!
×
Author
Tabbed by Richard Tan
richardcktan@hotmail.com

Song:   Everywhere
Artist: Michelle Branch

Capo First Fret 

Intro + 1st half of Verse 1: Am C | G | Am C | G
OR
         Am            C    |                 G 
E-------0----------0-------------3--------------3----- 
B----------1----------1-------------0--------------0-- 
G----2----------0------------0--------------0--------- 
D----------------------------------------------------- 
A-0----------3---------------------------------------- 
E-------------------------2--------------2------------ 
X2

Verse 1

Am           C                   G
     Turn it inside out so I can see 
Am               C                   G
     The part of you that's drifting over me 

2nd half of Verse 1: F C | G 
     F             C    |                 G 
E-------1----------0-------------3--------------3----- 
B----------1----------1-------------0--------------0-- 
G----2----------0------------0--------------0--------- 
D-3--------------------------------------------------- 
A-----------3----------------------------------------- 
E-------------------------2--------------2------------

                F      C             G
And when I wake you're, you're never there 
                 F     C             G      
But when I sleep you're, you're everywhere 
You're everywhere 

Verse 2

Am | C | G | G | Am | C | G | G (Power Cords on electric)

Am                C              G
     Just tell me how I got this far 
Am                C                   G
     Just tell me why you're here and who you are 
                    F            C     G
'Cause every time I look, you're never there 
                 F            C      G
And every time I sleep you're always there 

Chorus 1
              F    C        G
'Cause you're everywhere to me 
                    F         C     G
And when I close my eyes it's you I see 
                  F           C          G
You're everything I know that makes me believe
        F    C        G
I'm not alone whoa whoa
I’m not alone  

Verse 3

Am | C | G | G | Am | C | G | G (Power Cords on electric)

Am                  C                G
     I recognise the way you make me feel 
Am                C                           G
     It's hard to think that you might not be real
           F        C               G
I sense it now, the water's getting deep 
                  Em       F     G
I try to wash the pain away from me
Away from me 

Repeat Chorus 1

Solo (follow the Capo frets)

E-5-3-3-4-5-3-3-4-5-7-8-10-12-10-8-10-8-10-8-10-8-10-
B----------------------------------------------------
G----------------------------------------------------

Verse 4 
F C | G | F C | G
OR
       F             C |                 G 
E----3----------3-------------3----------3----- 
B-------1----------1--------------1---------1-- 
G----------------------------------------------
D-3-------------------------------------------- 
A------------3--------------------------------- 
E-------------------------3-----------3--------

    F                 C            G              
And when I touch your hand it's then I understand
    F                 C       G
The beauty that's within it's now that we begin
    F               C          G
You always light my way I hope there never comes a day
   F              C      G
No matter where I go I always feel you so

Repeat Chorus 1

Chorus 2
              F    C        G
'Cause you're everywhere to me 
                    F           C         G
And when I catch my breath it's you I breathe
                    F         C        G
You're everything I know that makes me believe
       F     C        G
I'm not alone whoa whoa

      F         C      |              G 
E------1---------0-------------3-----------3----- 
B---------1--------1-------------0------------0-- 
G---2----------0------------0-----------0--------
D-3----------------------------------------------
A------------3-----------------------------------
E-------------------------2-----------2----------
OR
          F    C       G
You're in everyone I see 
       F   C            G
So tell me, do you see me?
Suggest correction
What's this?
You can suggest a correction to this tab. Community and Mods will review your correction and vote to approve or reject it.
comments
print report bad tab
4 comments total. Showing first comments.
0 reply
Anthony 210 wrote on April 11 2002, 12:00 am

great tab!

0 reply
springy 0 wrote on April 18 2002, 12:00 am

Hi, I there is an error in this script. The chorus is Fadd9, Cadd5, Gadd5 okies. Springy!!!!

0 reply
Jusb 253 wrote on September 28 2003, 12:00 am

isnt\'t the F in pre-chorus an Am? anyways great tab

guest
You may want to rate the tab now too:
select rating
Please do not post tabs as comments. Select "correction" instead!