Oops, an error
Loading. Please wait.

Everywhere Tab

version 9
version 9
19,316 views 1 this week
2 commentsread comments
1 2 3 4 5
accurate
x 6
add to favorites
launch autoscroll
font size
0
reset
how to read this tab
guitar tuner
Autoscroll
slow
fast
+/-
esc
set tempo
stop
Help us to improve Ultimate-Guitar.com Take our survey!
×
Difficulty
intermediate
Song: Everywhere
Artist: Michelle Branch
Album: Michelle Branch
Tabbed by Patrick

You have to sharpen your guitar with a korg tuner an the guitar have to stay in this 
and remember the tuner have to stay with 415Hz.

6F# 5B 4E 3A 2C# 1F#

You can play this song more easy if you play the strings with four fingers
you can use the thumb to play the sixth and fifth strings and the others finger can play 
other stings but just play in this form in the intro
and the first verse.

Intro
   Am          C            G            G
1---------------------------------------------------|
2------1-------------1------------3-----------3-----|
3--------2-------------2------------0-----------0---|  x2
4---2-------------0------------0-----------2--------|
5-0----------0--3-----------------------------------|
6---------------------------3------------3----------|

Verse
Turn it inside out so I can see
The part of you that's drifting over me

    Am          C          G            G
1-------------------------------------------------|
2------1------------1------------3-----------3----|
3--------2------------2------------0-----------0--| x2
4---2-------------0-----------0-----------2-------|
5-0----------0--3---------------------------------|
6--------------------------3------------3---------|

And when I wake you're--you're never there

1----------------------------------------------------------|
2---------3------------3---------------3--------------3----|
3------------0------------0---------------0--------------0-|
4-----2--------------2--------------0--------------0-------|
5--3--------------3----------------------------------------|
6-------------------------------3---------------3----------|

And when I sleep you're--you're everywhere
    Am           C         G               G
1------------------------------------------3-------|
2------1------------1------------3---------3-------|
3--------2------------2------------0-------0-------|
4---2-------------0-----------0------------0-------|
5-0----------0--3--------------------------2-------|
6--------------------------3---------------3-------|

You're everywhere (in this part just leave 1 second and later play
with rhythmic guitar, just listen the rhythm)
  Am    C C C   G G   G G G
1---------------3-3---3-3-3-|
2-1-1---1-1-1---3-3---3-3-3-|
3-2-2---0-0-0---0-0---0-0-0-|
4-2-2---2-2-2---0-0---0-0-0-|
5-------3-3-3---2-2---2-2-2-|
6-------x-x-x---3-3---3-3-3-|

Just tell me how I got this far
Just tell me why you're here and who you are
   Am   C C C   G G   G G G
1---------------3-3---3-3-3-|
2-1-1---1-1-1---3-3---3-3-3-|
3-2-2---0-0-0---0-0---0-0-0-|
4-2-2---2-2-2---0-0---0-0-0-|
5-------3-3-3---2-2---2-2-2-|
6-------x-x-x---3-3---3-3-3-|

'Cause every time I look
You're never there

 Am     C C   G G   G G G
1-------------3-3---3-3-3-|
2-1-1---1-1---3-3---3-3-3-|
3-2-2---0-0---0-0---0-0-0-|
4-2-2---2-2---0-0---0-0-0-|
5-------3-3---2-2---2-2-2-|
6-------x-x---3-3---3-3-3-|

And every time I sleep
You're always there

 Am     C C   G G   G G G G G
1-------------3-3---3-3-3-3-3-|
2-1-1---1-1---3-3---3-3-3-3-3-|
3-2-2---0-0---0-0---0-0-0-0-0-|
4-2-2---2-2---0-0---0-0-0-0-0-|
5-------3-3---2-2---2-2-2-2-2-|
6-------x-x---3-3---3-3-3-3-3-|

      Fmaj7  C             G
Cause you're everywhere to me
                   Fmaj7      C     G
And when I close my eyes it's you I see
                    Fmaj7     C        G
You're everything I know that makes me believe
        Fmaj7    G
I'm not alone

I'm not alone

  Am    C C C   G G   G G G
1---------------3-3---3-3-3-|
2-1-1---1-1-1---3-3---3-3-3-|
3-2-2---0-0-0---0-0---0-0-0-|
4-2-2---2-2-2---0-0---0-0-0-|
5-------3-3-3---2-2---2-2-2-|
6-------x-x-x---3-3---3-3-3-|

I recognize the way you make me feel
It's hard to think that you might not be real
  Am    C C C   G G   G G G
1---------------3-3---3-3-3---|
2-1-1---1-1-1---3-3---3-3-3---|
3-2-2---0-0-0---0-0---0-0-0---|
4-2-2---2-2-2---0-0---0-0-0---|  x2
5-------3-3-3---2-2---2-2-2---|
6-------x-x-x---3-3---3-3-3---|

I sense it now, the water's getting deep

  Am    C C C   G G   G G G
1---------------3-3---3-3-3-|
2-1-1---1-1-1---3-3---3-3-3-|
3-2-2---0-0-0---0-0---0-0-0-|
4-2-2---2-2-2---0-0---0-0-0-|
5-------3-3-3---2-2---2-2-2-|
6-------x-x-x---3-3---3-3-3-|

I try to wash the pain away from me
Away from me

  Am    C C C   G G   G G G
1---------------3-3---3-3-3-|
2-1-1---1-1-1---3-3---3-3-3-|
3-2-2---0-0-0---0-0---0-0-0-|
4-2-2---2-2-2---0-0---0-0-0-|
5-------3-3-3---2-2---2-2-2-|
6-------x-x-x---3-3---3-3-3-|


       Fmaj7 C             G
Cause you're everywhere to me
                   Fmaj7      C     G
And when I close my eyes it's you I see
                    Fmaj7     C        G
You're everything I know that makes me believe
        Fmaj7    G
I'm not alone

I'm not alone


Continues the rhythmyc guitar like in the chorous during the solo
Solo:

1----------------------------------------------------|
2-10--8---8---9---10--8---8---9---10--12--13--15--17-|
3-12--10--10--11--12--10--10--11--12--14--15--17--19-|
4----------------------------------------------------|
5----------------------------------------------------|
6----------------------------------------------------|

1----------------------------|
2-17--15--13--12--13--12--13-|
3-19--17--15--14--15--14--15-|
4----------------------------|
5----------------------------|
6----------------------------|

And when I touch your hand
It's then I understand

1------3-----------3----|
2--------3-----------3--|
3---0-----------0-------|x2
4-----------------------|
5-3-----------3---------|
6-----------------------|

The beauty that's within
It's now that we begin

1------3-----------3---|
2--------3-----------3-|
3---0-----------0------|x2
4----------------------|
5-2----------2---------|
6----------------------|

You always light my way
I hope there never comes a day

1------3-----------3----|
2--------3-----------3--|
3---0-----------0-------| x2
4-----------------------|
5-3-----------3---------|
6-----------------------|

No matter where I go
I always feel you so

1------3-----------3--------------3--------3-|
2--------3-----------3---------------3-----3-|
3---0-----------0-------------0------------0-|
4------------------------------------------2-|
5-2----------2-------------2---------------3-|
6------------------------------------------x-|

      Fmaj7  C             G
Cause you're everywhere to me
                   Fmaj7      C     G
And when I close my eyes it's you I see
                  Fmaj7       C        G
You're everything I know that makes me believe
        Fmaj7    G
I'm not alone
       Fmaj7  C             G
'Cause you're everywhere to me
           Fmaj7
And when I catch my breath
     C     G
It's you I breathe
                  Fmaj7
You're everything I know
     C        G
That makes me believe
        Fmaj7    G
I'm not alone

You're in everyone I see
So tell me

1------3---------3------------3-------------3---|
2---------3----------3-----------3------------3-|  This is the end of
3---0----------0-----------0-------------0------|  the song and you
4-----------------------------------------------|  have to
5-3----------3----------2-------------3---------|  play this part
6-----------------------------------------------|  slowly
          Cadd9
Do you see me?

Fmaj7  G   C   Cadd9  Am
-3    -3  -0  -3     -0-|
-1    -3  -1  -3     -1-|
-2    -0  -0  -0     -2-|
-3    -0  -2  -2     -2-|
-0    -2  -3  -3     -0-|
-x    -3  -x  -x     -x-|

If you want to play this song with the music in live remember than the
sound isn't the same and you've to sharpen the strings in this tuning:
f
C
G#
Eb
Bb
F

And remember you've to use a korg tuner to sharp you're guitar more easy.
Suggest correction
What's this?
You can suggest a correction to this tab. Community and Mods will review your correction and vote to approve or reject it.
comments
print report bad tab
2 comments total.
+2 reply
landersman 634 wrote on October 19 2010, 07:40 pm

If only there was a way to sharpen the pitch of the guitar without changing the tuning... oh wait its called a capo

0 reply
aron444 4,249 wrote on August 23 2011, 05:19 pm

No needs to be a smart ass about it but yes. a CAPO at the 1st fret will put you where you want to be.

guest
You may want to rate the tab now too:
select rating
Please do not post tabs as comments. Select "correction" instead!