Oops, an error
Loading. Please wait.

Goodbye To You Acoustic Chords

version 2
version 2

Whole song

15,252 views 3 this week
1 commentread comment
1 2 3 4 5
accurate
x 10
add to favorites
launch autoscroll
font size
0
reset
transpose
0
reset
simplify chords
- display chords -
guitar tuner
Tab Pro tools
  • play this tab
  • loop segment
  • change instrument
  • show fretboard
  • metronome
Autoscroll
slow
fast
+/-
esc
set tempo
stop
Contributor
This song is really nice and easy. This the acoustic version when you can
hear the guitar really easily. I am very very sure it's correct..

CHORDS

Cadd9-032033
C9-054055<===(I'm not quite sure wat this chord is called, but she uses it)
G-320033     (a lot in her albums to replace the D.                       )
D-xx0232
Em-0220xx
A-x02220
E5-002033<===(Not sure about this one either, lol)
D7-xxx787
C-032010

I've put a = in the chords you have to play really quickly

CAPPO ON FIRST FRET

Goodbye to you

Intro- Cadd9 C9 G  Cadd9=G (x2)

Cadd9       C9               G    Cadd9=G
Of all the things I've believed in

Cadd9        C9     G         Cadd9=G
I just wanna get it over with

Cadd9       C9
Tears form behind my eyes

G     D       Em
But I do not cry

A            E5                 Cadd9
Counting the days that pass me by

Cadd9       C9                 G       Cadd9=G
I've been searching deep down in my soul

Cadd9             C9       G                  Cadd9=G
Words that I'm hearing are starting to get old

Cadd9             C9        G   D Em
Feels like I'm starting all over again

A              E5                   Cadd9
The last three years were just pretend, and I said

CHORUS

G   D       Em Cadd9
Goodbye to you

           G    D                  Em  Cadd9
Goodbye to everything I thought I knew

G           D        Em
You were the one I loved

A                    E5            Cadd9
The one thing that I tried to hold onto


Cadd9  C9  G  Cadd9=G

Cadd9       C9          G       Cadd9=G
I still get lost in your eyes

Cadd9               C9           G              Cadd9=G
And it seems that I can't live a day without you

Cadd9       C9
Closing my eyes

          G        D         Em
And you'd chase my thoughts away

     A                  E5           Cadd9
To a place where I am blinded by the light, but its not right

CHORUS

G   D       Em Cadd9
Goodbye to you

           G    D                  Em  Cadd9
Goodbye to everything I thought I knew

G           D        Em
You were the one I loved

A                    E5            Cadd9
The one thing that I tried to hold onto

(Okay, M.B plays it different live and different on the album so you can choose between:

ALBUM VERSION
E|--------7-----8--7----------------------0--|
b|-----8--------------8-----------1--1h3-----|
g|--7--------7-----------7-------------------|
d|-----------------------------2-------------|
a|--------------------------3----------------|
e|-------------------------------------------|
                   
                   
                  OR-
                   
                   
LIVE VERSION
E|--7-7-7-7-8-7-7-7-8--3-3-3-3-3-3-3--|
b|--8-8-8-8-8-8-8-8-8--3-3-3-3-3-3-3--|
g|--7-7-7-7-7-7-7-7-7--0-0-0-0-0-0-0--|
d|---------------------2-2-2-2-2-2-2--|
a|---------------------3-3-3-3-3-3-3--|
e|------------------------------------|

(I'll just do the album version, but both are correct)

E|--------7-----8--7----------------------0--|
b|-----8--------------8-----------1--1h3-----|
g|--7--------7-----------7-------------------|
d|-----------------------------2-------------|
a|--------------------------3----------------|
e|-------------------------------------------|
Oh oh oowoh

E|--------7-----8--7----------------------0--|
b|-----8--------------8-----------1--1h3-----|
g|--7--------7-----------7-------------------|
d|-----------------------------2-------------|
a|--------------------------3----------------|
e|-------------------------------------------|


E|--------7-----8--7----------------------0--|
b|-----8--------------8-----------1--1h3-----|
g|--7--------7-----------7-------------------|
d|-----------------------------2-------------|
a|--------------------------3----------------|
e|-------------------------------------------|
And it hurts to want everything and nothing at the same time

E|--------7-----8--7----------------------0--|
b|-----8--------------8-----------1--1h3-----|
g|--7--------7-----------7-------------------|
d|-----------------------------2-------------|
a|--------------------------3----------------|
e|-------------------------------------------|
I want what's yours and I want what's mine

(pause)

I want you but I'm not giving in this time

CHORUS

G   D       Em Cadd9
Goodbye to you

           G    D                  Em  Cadd9
Goodbye to everything I thought I knew

G           D        Em
You were the one I loved

A                    E5            Cadd9
The one thing that I tried to hold onto


G   D       Em Cadd9
Goodbye to you

           G    D                  Em  Cadd9
Goodbye to everything I thought I knew

G           D        Em
You were the one I loved

A                    E5            Cadd9
The one thing that I tried to hold onto

    D                              Cadd9
The one thing that I tried to hold on to

E|--------7-----8--7----------------------0--|
b|-----8--------------8-----------1--1h3-----|
g|--7--------7-----------7-------------------|
d|-----------------------------2-------------|
a|--------------------------3----------------|
e|-------------------------------------------|
Oh oh oowoh
E|--------7-----8--7----------------------0--|
b|-----8--------------8-----------1--1h3-----|
g|--7--------7-----------7-------------------|
d|-----------------------------2-------------|
a|--------------------------3----------------|
e|-------------------------------------------|
The one thing that I tried to hold onto

E|--------7-----8--7----------------------0--|
b|-----8--------------8-----------1--1h3-----|
g|--7--------7-----------7-------------------|
d|-----------------------------2-------------|
a|--------------------------3----------------|
e|-------------------------------------------|
And when the stars fall I will lie awake

D(One strum)          G(one strum)
You're my shooting star

If you have any comments, or if I made a mistake, email me at

opinion8ted_beeeatch@hotmail.com
comments
print report bad tab
1 comment total.
0 reply
HeatherGuitar wrote on December 12 2009, 02:32 pm

sounds good, according to another tab i saw, 002033 is an A5, but im not positive. anyway, good tab

I want to post or [tab]
guest
You may want to rate the tab now too:
select rating
Please do not post tabs as comments. Select "correction" instead!