Oops, an error
Loading. Please wait.

Photograph chords

376 views 12 this week
no commentswrite comment
1 2 3 4 5
3 more votes to show rating
add to favorites
×
Save as Personal and add changes to this tab that will be seen only by you. Learn more ›
×
You can save this tab as Personal to edit and correct it or add notes. All changes will be seen only by you. Learn more »
launch autoscroll
font size
0
reset
transpose
0
reset
display chords
guitar tuner
edit
Autoscroll
slow
fast
+/-
esc
set tempo
stop
Author
Strumming
There is no strumming pattern for this song yet. and get +5 IQ
Song Name: Photograph
Album Name: Two of Diamonds (2007)

Intro part 1 (repeat twice):

e|-1----0---------1-----------------0----------------0h1---------------------|
B|-3-------2------3-----3-----------1--------1-------3-----------------------|
G|-2--------------3---------3-------0----2-----------2-----------------------|
D|-0--------------3-----------------2----------------0-----------------------|
A|----------------1-----------------3----------------------------------------|
E|----------------1-----------------0----------------------------------------|

Intro part 2:

E|--0----0----0----0h1---------------------------------------------------------------|
B|--1----1----1----3-----------------------------------------------------------------|
G|--0----0----0----2-----------------------------------------------------------------|
D|--2----2----2----0-----------------------------------------------------------------|
A|--3----3----3----------------------------------------------------------------------|
E|--0----0----0----------------------------------------------------------------------|


Verse:
(Note, on the G chord, use a G barre chord)


Dm        Bb              C        Dm
There's a photograph in a haunted room
            Bb                 C        Dm
filled with memories that have gone too soon
       Bb        C    Dm
and as i pass by everyday
      G                   Am        Dm
i say why does it make me feel this way


         Bb          C              Dm
there is life in the setting of the sun
        Bb                   C         Dm
and you know I think that it should go on
          Bb           C    Dm
but as it turns around everyday
      G                   Am        Dm
I say why does it make me feel this way
G                   Am        Dm
why does it make me feel this way

(Repeat Intro part 1 four times, then play intro part 2)
        
        Bb       C        Dm
laughing sun and laughing moon
        Bb          
i think they should be
C                Dm
and i want to be too
          Bb          C       Dm
but as it turns out i have to say
G                   Am        Dm
why does it make me feel this way
G                   Am        Dm
why does it make me feel this way
G                   Am        Dm
why does it make me feel this way

(Repeat intro 1 twice)

            
            
Suggest correction
Creating personal tab
Creating personal tab
You can edit any tab online and save it as your Personal.

You can edit, replace or remove any tab part or add personal notes – all changes will be seen only by you.

Personal tabs can be accessed anytime from any device, even offline.
Learn more »
Give kudos to tab author, rate the tab!
1 2 3 4 5
comments
print report bad tab
guest
You may want to rate the tab now too:
select rating
Wanna post a correction for this tab? Suggest correction